Oops, an error
Loading. Please wait.

Lord Of The Rings Theme tab

version 1
version 1

Interactive

252,645 views 252 this week
21 commentsread comments
1 2 3 4 5
x 55
add to favorites
×
Save as Personal and add changes to this tab that will be seen only by you. Learn more ›
×
You can save this tab as Personal to edit and correct it or add notes. All changes will be seen only by you. Learn more »
launch autoscroll
font size
0
reset
how to read this tab
guitar tuner
edit
Autoscroll
slow
fast
+/-
esc
set tempo
stop
[Intro/Verse]

e|------------------------------------------------------------------|
B|------------------------------------------------------------------|
G|-----------------------------0-3-2--------------------------------|
D|-------0-3-0-----0------0-3---------3-0-1-0-----------------------|
A|--1--3---------3--3-1------------------------3--------------------|
E|------------------------------------------------------------------|

e|------------------------------------------------------------------|
B|------------------------------------------------------------------|
G|-----------------------0------------------------------------------|
D|-------0-3-0-------0-3---3-0--------------------------------------|
A|--1--3---------3-1-----------3---1-3-1----------------------------|
E|------------------------------------------------------------------|

 [Chorus 1]

e|------------------------------------------------------------------|
B|------------------------------------------------------------------|
G|------------------------------------------------------------------|
D|------------------5-7-8--7-5------5-7-5---------------------------|(Repeat ?)
A|--5--3---3-3--5--------------8-------------8--7--5--3--3-3-5------|
E|------------------------------------------------------------------|

e|-----------------------------------------------------------------|
B|-----------------------------------------------------------------|
G|-----------------------------------------------------------------|
D|----------------5-7-8--7-9-10--9-10-12---------------------------|
A|-5--3---3-3--5---------------------------------------------------|
E|-----------------------------------------------------------------|

I Think this is mostly correct. I am a big lord of the rings fan, so i had to
convert this music to my guitar so i could play it over and over again by myself.
contact me at Badasspimps69@yahoo.com

            
            
Suggest correction
Creating personal tab
Creating personal tab
You can edit any tab online and save it as your Personal.

You can edit, replace or remove any tab part or add personal notes – all changes will be seen only by you.

Personal tabs can be accessed anytime from any device, even offline.
Learn more »
comments
print report bad tab
21 comments total. Showing first comments.
0 reply
humanclay1214 10 Dec 09, 2003 07:00 PM

i like it it's preety accurate

+3 reply
Anarkyofadown 10 Dec 28, 2003 07:00 PM

the second part is not accurate, but its pretty good

0 reply
agracer 10 Jan 01, 2004 07:00 PM

Amazing

guest
Wanna post a correction for this tab? Suggest correction