Oops, an error
Loading. Please wait.

Lord Of The Rings Theme Tab

version 1
version 1

Interactive

235,680 views 333 this week
21 commentsread comments
1 2 3 4 5
accurate
x 47
add to favorites
launch autoscroll
font size
0
reset
how to read this tab
guitar tuner
Autoscroll
slow
fast
+/-
esc
set tempo
stop
Help us to improve Ultimate-Guitar.com Take our survey!
×
Tuning
E A D G B E
[Intro/Verse]

e|------------------------------------------------------------------|
B|------------------------------------------------------------------|
G|-----------------------------0-3-2--------------------------------|
D|-------0-3-0-----0------1-3---------3-0-1-0-----------------------|(Repeat ?)
A|--1--3---------3--3-1------------------------3--------------------|
E|------------------------------------------------------------------|


 [Chorus 1]

e|------------------------------------------------------------------|
B|------------------------------------------------------------------|
G|------------------------------------------------------------------|
D|------------------5-7-8--7-5------5-7-5---------------------------|(Repeat ?)
A|--5--3---3-3--5--------------8-------------8--7--5--3--3-3-5------|
E|------------------------------------------------------------------|

e|-----------------------------------------------------------------|
B|-----------------------------------------------------------------|
G|-----------------------------------------------------------------|
D|----------------5-7-8--7-9-10--9-10-12---------------------------|
A|-5--3---3-3--5---------------------------------------------------|
E|-----------------------------------------------------------------|

I Think this is mostly correct. I am a big lord of the rings fan, so i had to
convert this music to my guitar so i could play it over and over again by myself.
contact me at Badasspimps69@yahoo.com
Suggest correction
comments
print report bad tab
21 comments total. Showing first comments.
0 reply
humanclay1214 10 wrote on December 10 2003, 12:00 am

i like it it's preety accurate

+3 reply
Anarkyofadown 10 wrote on December 29 2003, 12:00 am

the second part is not accurate, but its pretty good

0 reply
agracer 10 wrote on January 2 2004, 12:00 am

Amazing

guest
You may want to rate the tab now too:
select rating
Wanna post a correction for this tab? Suggest correction