Oops, an error
Loading. Please wait.

Lord Of The Rings Theme tab

version 6
version 6

Interactive

222,092 views 786 this week
7 commentsread comments
1 2 3 4 5
x 158
add to favorites
×
Save as Personal and add changes to this tab that will be seen only by you. Learn more ›
×
You can save this tab as Personal to edit and correct it or add notes. All changes will be seen only by you. Learn more »
launch autoscroll
font size
0
reset
how to read this tab
guitar tuner
edit
Autoscroll
slow
fast
+/-
esc
set tempo
stop
This is a classical guitar piece, so you must know how to pick with your fingers. Although I did
NOT write this tab, I did do some editing. The original tab was by a YouTuber, Tim Parsons.
Here is the video: http://www.youtube.com/watch?v=e9gYID6Ij3o&feature=related

NOTE: This piece is in the key of C. If you want to play a more accurate, impressive, difficult
version in the correct key of D, check out Harry Murrell's arrangement: https://youtu.be/EYUaW68Xdh0
(his tab is on his website, in the description). This is the version that I prefer to
play today. -Aidan

Standard Tuning: eBGDAE

e|--------0-----3------0-------------------------------0--3------|
B|-1--3-----------------------3-------1--------------------------|
G|-----------0-----0------0------0-------0----0------------------|
D|------------------------------------------2-------2------------|
A|--------3---------------------------3----------3---------------|
E|---------------------------------------------------------------|

e|--5----8---7-----------0--------1p0----------------0-----3-----|
B|-----------------8-------------------3--------1h3--------------|
G|-----5---5----5-----5--------2--------------0---------0-----0--|
D|--3-----------------------2-------------0----------------------|
A|-----------------------0---------------------------3-----------|
E|-------------------------------------3-------------------------|

e|-0---------------------------------0--3---5--------------------|
B|-------3-3h5p3--1------------------------------5---------------|
G|----0-----------------0----------------------5---5------5------|
D|-------------------2-----2------2---------3----------3---------|
A|----------------3------------3---------------------------------|
E|---------------------------------------------------------------|

e|--3-----0--------1p0-------------------------------------------|
B|--0--5----------------3----------------------------------------|
G|--------------2------------0-----0-----2--0--0-0-2-------------|
D|-----------2-------------0---0-----0---2--0------2--0-2-3--2-0-|
A|--------0------------------------------0---------0------3------|
E|----------------------3-------------------3--------------------|

e|-----------------------------------0-1------0-1-3-----0--3---5-|
B|--------------------------------3--------3---------------------|
G|-------------------2--0--0-0-2---------2-----------0---------5-|
D|-----0-2-0---------2--0------2---------------------------------|
A|--3----------3--2--0---------0-------0-------------------------|
E|--3------3---1--0-----3-------------------------3------------5-|

e|--3--3-3-5-----0-1--------0---------0--------------------------|
B|--0----------3---------3----3-1---3---3--------1------0--------|
G|--0------5----------2---------------------0--------------------|
D|--------------------------------2-------0---0------0-----0---2-|
A|-----------------0------------3----------------0---------------|
E|--3------5----------------------------3------------------------|

e|-------------------------------------0--------3-----0----------|
B|-----------------------0-------1--3--------------------3-----1-|
G|--2---0--0-0--2-----2-----2---------------0------0--------0----|
D|--2---0-------2--2---------------------------------------------|
A|--0-----------0----------------------3-------------------------|
E|------3------------------------------------------------------3-|

e|------------------0--3--5-----8------7------3-------0----------|
B|---------------------------------------------------------------|
G|-----2---------------------5-----5-------0-----0----------0----|
D|--3-----3-----2---------3------------------------------2-------|
A|----------------------------------------------------3----------|
E|-----------0---------------------------------------------------|

e|--1p0-----------------0-----3------0---------------------------|
B|-------3-------1--3-----------------------3-3h5p3--1-----------|
G|----------0---0----------0-----0------0-----------------2------|
D|------------0----------------------------------------3----3----|
A|----------------------3----------------------------3-----------|
E|-------3---------------------------0-------------------------0-|

e|----0--3---5--------------------------------------------0------|
B|------------------5-------------8--5---3-------------3-----3---|
G|---------------5-----5------5-----------------0--------------0-|
D|-2---------3-------------3-----------------0-----0-------------|
A|---------------------------------------------------------------|
E|---------------------------------------3-------------3---------|

e|---------------------------------------------------------------|
B|--1-----------1------------------------------------------------|
G|-----2-2--0---0------------------------------------------------|
D|--------------2------------------------------------------------|
A|--0-----------3------------------------------------------------|
E|---------------------------------------------------------------|


************************************
| h   Hammer-on
| p   Pull-off

************************************

            
            
Suggest correction
Creating personal tab
Creating personal tab
You can edit any tab online and save it as your Personal.

You can edit, replace or remove any tab part or add personal notes – all changes will be seen only by you.

Personal tabs can be accessed anytime from any device, even offline.
Learn more »
comments
print report bad tab
7 comments total. Showing first comments.
+9 reply
doubleG 72 Mar 04, 2012 10:36 AM

In the second line I think it's much easier to play the F on the 8th fret on the A string rather than the 3rd fret D string. If you barre at the 5th it sets you up nicely for going up to the C on the 8th fret e string. I'm pretty sure that's what he does in the video and I think it helps the piece to flow better.

0 reply
tabs4u:) 41 Feb 12, 2013 10:41 PM

this is the best tab for this song i have seen so far, thats another 5 stars for u man, keep up the good work!!!

+1 reply
superbb98 31 Feb 23, 2014 04:10 AM

so nice i can really imagine Frodo and Sam in their travel!!

guest
You may want to rate the tab now too:
select rating
Wanna post a correction for this tab? Suggest correction