Oops, an error
Loading. Please wait.

Luke Cage Theme Song Tab

433 views 39 this week
no commentswrite comment
1 2 3 4 5
x 3
add to favorites
launch autoscroll
font size
0
reset
how to read this tab
guitar tuner
Autoscroll
slow
fast
+/-
esc
set tempo
stop
Help us to improve Ultimate-Guitar.com Take our survey!
×
Author
Difficulty
novice
About this tab version
This was done by ear, so it should be good. Was this info helpful? Yes No
Hey guys, Jeff here, i did a cover of Luke Cage's Theme Song on YouTube and lots of people requested the tab
to it, so here is it, i did it mostly by ear. Here is the video i did as well: 
https://www.youtube.com/watch?v=_asvkkzzZAY I might do a lesson as well too, so let me know if you want that. 
If you have any questions, please comment it on my YouTube video. 


[Intro Riff]
e|-----------------------|-----------------------|-----------------------|-----------------------|
B|-----------------------|-----------------------|-----------------------|-----------------------|
G|-----------------------|-----------------------|-----------------------|-----------------------|
D|-----------------------|-----------------------|-----------------------|-----------------------|
A|-7p4-4-4---4-4-7p4-4-4-|-7p4-4-4---4-4-7p4-4-4-|-7p4-4-4---4-4-7p4-4-4-|-7p4-4-4---4-4-7p4-4-4-|
E|-----------------------|-----------------------|-----------------------|-----------------------|

** For the "7p4" you can pull off, or i just pick both notes, just fast.

[First Riff]
e|-----------------------|-----------------------|-----------------------|-----------------------|
B|-------------------7h9-|-5h7~------------------|-5h7~----------------5-|-----------------------|
G|-------6----9--6-------|-----------------------|-----------------------|-4h6-------------------|
D|-----------------------|-----------------------|-----------------------|-----------------------|
A|(4)--------------------|-----------------------|-----------------------|-----------------------|
E|-----------------------|-----------------------|-----------------------|-----------------------|

[Second Riff]
e|-----------------------14h16-|-12h14~---------------------|-12h14~------------------12-|-------------------|
B|-------12h14---14h17---------|----------------------------|----------------------------|-12h14~------------|
G|-----------------------------|----------------------------|----------------------------|-------------------|
D|-----------------------------|---------------------------------------------------------|-------------------|
A|-----------------------------|----------------------------|----------------------------|-------------------|
E|-----------------------------|----------------------------|----------------------------|-------------------|


[Chord Progression] x2
e|-----------------------|-----------------------|-----------------------|-----------------------|
B|-----------------------|-----------------------|-----------------------|-----------------------|
G|-6---------------------|-9---------------------|-8---------------------|-----------------------|
D|-x---------------------|-x---------------------|-x---------------------|-----------------------|
A|-4---------------------|-7---------------------|-6---------------------|-2---------------------|
E|-----------------------|-----------------------|-----------------------|-0---------------------|


[third riff]
e|-------7h9-7------------|------------------------|-----------------------|-----------------------|
B|----------------7h9-7h9-|-7----------------------|---------------5-5h7-5-|-----------------------|
G|-6----------------------|------------------------|-----------------------|-4-4h6~----------------|
D|-x----------------------|------------------------|-----------------------|-----------------------|
A|-4----------------------|------------------------|-----------------------|-----------------------|
E|------------------------|------------------------|-----------------------|-----------------------|


[Chord Progression]
e|------------------------|------------------------|----------7h9-7-----------|-----------------------|
B|------------------------|------------------------|------------------7h9-7h9-|-7---5-5h7-5-----------|
G|-6----------------------|-9----------------------|-8------------------------|--------------4-4\6~---|
D|-x----------------------|-x----------------------|-x------------------------|-----------------------|
A|-4----------------------|-7----------------------|-6------------------------|-----------------------|
E|------------------------|------------------------|--------------------------|-----------------------|



************************************


| (n) Ghost note
| h   Hammer-on
| p   Pull-off

************************************
Suggest correction
Give kudos to tab author, rate the tab!
1 2 3 4 5
comments
print report bad tab
guest
You may want to rate the tab now too:
select rating
Wanna post a correction for this tab? Suggest correction