Oops, an error
Loading. Please wait.

Marvels Daredevil - Opening Titles Tab

22 views 3 this week
no commentswrite comment
1 2 3 4 5
3 more votes to show rating
add to favorites
launch autoscroll
font size
0
reset
how to read this tab
guitar tuner
Autoscroll
slow
fast
+/-
esc
set tempo
stop
Help us to improve Ultimate-Guitar.com Take our survey!
×
Author
Difficulty
novice
About this tab version
A simple and easy-to-learn tab . This is My First Ever tab, corrections and suggestions are welcome :). Was this info helpful? Yes No
[Intro]

e|0-------0-------|     
B|--1-0-----1-0---|    
G|------2-------2-|   
D|----------------|      
A|----------------|     
E|----------------|(x2)    

e|1-------1-------|
B|--1-0-----1-0---|
G|------2-------2-| 
D|----------------|
A|----------------|
E|----------------|(x2)

e|----------------|0-------0-------| 
B|3-1-0---3-1-0---|--1-0-----1-0---|
G|------2-------2-|------2-------2-|
D|----------------|----------------|
A|----------------|----------------|
E|----------------|----------------|

(Repeat)

2nd guitar(Background):

e|1-0---1-5-3-----|3----------0--5-----|    
B|----------------|--3---3-2-----------|   
G|----------------|--------------------|   
D|----------------|--------------------|      
A|----------------|--------------------|    
E|----------------|--------------------|
Suggest correction
Give kudos to tab author, rate the tab!
1 2 3 4 5
comments
print report bad tab
guest
You may want to rate the tab now too:
select rating
Wanna post a correction for this tab? Suggest correction