Oops, an error
Loading. Please wait.

Mash Theme Bass Tab

4,889 views 9 this week
1 commentread comment
1 2 3 4 5
excellent!
x 3
add to favorites
launch autoscroll
font size
0
reset
guitar tuner
Autoscroll
slow
fast
+/-
esc
set tempo
stop
Help us to improve Ultimate-Guitar.com Take our survey!
×
Song Title: Theme to M*A*S*H
Artist: Miscellaneous
----------------------------------------------

  M*A*S*H

g--3--1--0-1---0-1--0------------0-----0------0---------0-------------------
d----------------------3------------3------3-----3---1------3---1--3--1---3-
a---------------------------------------------------------------------------
e---------------------------------------------------------------------------

g-------------------------------------0-|
d---1---0-----3--1-----0--1--0---3------|
a---------------------------------------|
e---------------------------------------|

Everyone knows this is the theme to M*A*S*H, but hardly anyone knows that 

it is actually a song called "Suicide Is Painless" ( With a melody of

'Cause suicide is painless / it brings on many changes ...'). A perfect

acoustic piece for your TV theme repertoire.

FaDoing@aol.com!




Submitted by:  Rikhav D=Shah (FaDoing@aol.com)


Suggest correction
Give kudos to tab author, rate the tab!
1 2 3 4 5
comments
print report bad tab
1 comment total.
0 reply
Univarseman 10 wrote on April 7 2015, 11:33 am

g--3--1--0-1---0-1--0---------1--0-----0------0---------0----------------
d----------------------3------------3------3-----3---1------3---1--3--1---3
a------------------------------------------------------------------------
e--------------------------------------------------------------------------

g-------------------------------------0-|
d---1---0-----3--1-----0--1--0--1--3------|
a---------------------------------------|
e---------------------------------------|

guest
You may want to rate the tab now too:
select rating
Please do not post tabs as comments. Select "correction" instead!