Oops, an error
Loading. Please wait.

Master And Commander - Ending Song Tab

2,998 views 12 this week
1 commentread comment
1 2 3 4 5
3 more votes to show rating
add to favorites
launch autoscroll
font size
0
reset
how to read this tab
guitar tuner
Autoscroll
slow
fast
+/-
esc
set tempo
stop
Help us to improve Ultimate-Guitar.com Take our survey!
×
Author
Difficulty
novice
First Part Chords: [G (4X), C (3X), D (3X), G (1X)] (3X) (Play in order)

s=slide ((3s5 is optional)(1s3 is not optional))

E------------------------------------------------------------------------------|
B---3-5-3-3-0---------1-3-3s5-3-1--1-0-1-3-3s5-3-1-0--0-1-0------1s3-----------|
G---------------2-0-------------------------------------------2-0------2-------|
D------------------------------------------------------------------------------|
A------------------------------------------------------------------------------|
E------------------------------------------------------------------------------|

E----------------------------------------------------------------------------|
B---3-5-3-3-0-1-3-1----0-----------------------------------------------------|
G--------------------2----0--------------------------------------------------|
D----------------------------------------------------------------------------|
A----------------------------------------------------------------------------|
E----------------------------------------------------------------------------|

Working on the rest. Thank you.
Suggest correction
Give kudos to tab author, rate the tab!
1 2 3 4 5
comments
print report bad tab
1 comment total.
0 reply
DikseunWarchief 16 Mar 28, 2013 06:20 AM

-------------------------------------
--------3---3-----3------------------
-------------------------------------
-------------------------------------
-------------------------------------

--0-----------------------------0-------|
--------3--1-----1h----0h-1h-3----------|
----------------------------------------|
----------------------------------------|
--3-------------------------------------|
----------------------------------------|

----------------------------------------|
--3-----0h-1-----0-----0h-1h-0----------|
--------------2-----0-----------2h-0----|
----------------------------------------|
----------------------------------------|
--3-------------------------------------|

--------------------------------0-------|
-----------------------3h-2h-3-----3----|
----------------------------------------|
--0-----4h-5--2h-4--0-------------------|
----------------------------------------|
----------------------------------------|

----------------------------------------|
--1-----0-----0h-1--0h-1h-0-------------|
-----------2-----------------2h-4h-2--0-
----------------------------------------|
----------------------------------------|
----------------------------------------|

finished it for you

guest
You may want to rate the tab now too:
select rating
Wanna post a correction for this tab? Suggest correction