Oops, an error
Loading. Please wait.

Michael Giacchino - Doctor Strange Theme Tab

592 views 129 this week
no commentswrite comment
1 2 3 4 5
2 more votes to show rating
add to favorites
launch autoscroll
font size
0
reset
how to read this tab
guitar tuner
Autoscroll
slow
fast
+/-
esc
set tempo
stop
Help us to improve Ultimate-Guitar.com Take our survey!
×
Author
Difficulty
intermediate
About this tab version
This is the main riff in the Latest Marvel Movie "Doctor Strange". While watching this movie there was a repeated riff that kept playing. Here it is. Was this info helpful? Yes No
[Main Riff]
e|---10---10-10--12-13-10--13---12----8----|------11---11---11-13-15--11--10----------------|
B|-----------------------------------------|-------------11---------------------------------|
G|-----------------------------------------|------------------------------------------------|
D|-----------------------------------------|------------------------------------------------|
A|-----------------------------------------|------------------------------------------------|
E|-----------------------------------------|------------------------------------------------|

e|------11--11--11-13-15--11---18----15----|---8---8-8--10-11-10----4---5-------------------|
B|------------11---------------------------|---------------------------------7--------------|
G|-----------------------------------------|------------------------------------------------|
D|-----------------------------------------|------------------------------------------------|
A|-----------------------------------------|------------------------------------------------|
E|-----------------------------------------|------------------------------------------------|

e|-----------------------------------------|------------------------------------------------|
B|-----------6~-----6~----7--6~------------|----6~----7--4~---------------------------------|
G|-----------------------------------------|------------------------------------------------|
D|-----------------------------------------|------------------------------------------------|
A|-----------------------------------------|------------------------------------------------|
E|-----------------------------------------|------------------------------------------------|

e|-----------------------------------------|------------------------------------------------|
B|-----------4~---6---3~--------6~---------|--------4~-----4~---6---3~----------------------|
G|-----------------------------------------|------------------------------------------------|
D|-----------------------------------------|------------------------------------------------|
A|-----------------------------------------|------------------------------------------------|
E|-----------------------------------------|------------------------------------------------|
                          
e|-----------------------------------------|                      
B|--------4~-----4~---6---3~---------------|                      ********************
G|-----------------------------------------|   x2                   | ~ Vibrato
D|-----------------------------------------|                       
A|-----------------------------------------|                      ********************
E|-----------------------------------------|                  
Suggest correction
Give kudos to tab author, rate the tab!
1 2 3 4 5
comments
print report bad tab
guest
You may want to rate the tab now too:
select rating
Wanna post a correction for this tab? Suggest correction