Oops, an error
Loading. Please wait.

Mission Impossible Theme tab

version 1
version 1

Interactive

502,181 views 831 this week
52 commentsread comments
1 2 3 4 5
x 194
add to favorites
×
Save as Personal and add changes to this tab that will be seen only by you. Learn more ›
×
You can save this tab as Personal to edit and correct it or add notes. All changes will be seen only by you. Learn more »
launch autoscroll
font size
0
reset
how to read this tab
guitar tuner
edit
Autoscroll
slow
fast
+/-
esc
set tempo
stop
Author
Unregistered
Mission Impossible Theme

 riff:1
e|---------------------------|
B|---------------------------|
G|---------------------------| repeat this part 2x
D|---------------------------|
A|-------1--3----------------|
E|-3--3----------3--3--1--2--|

 then
e|-3--3--6--8---3--3--1--2---                         --------------------------|
B|---------------------------                         --------------------------|
G|---------------------------           or            --------------------------|
D|---------------------------                         -5--5--8--10--5--5--3--4--|
A|---------------------------                         -5--5--8--10--5--5--3--4--|
E|-3--3--6--8---3--3--1--2---                         -3--3--6--8---3--3--1--2--|

 riff:2a
e|------------------------------------------|
B|------------------------------------------|
G|------------------------------------------|
D|------------------------------------------|
A|---------------1--3-----------------------|
E|-3--3--3--3--3--------3--3--3--3--3-1--2--|

 riff:2b
e|-12--9------12--9------12--9--------------4--0--7---3--0--6---3--0--5---3--5------|
B|--------9---------8----------7------5--7------------------------------------------|
G|----------------------------------------------------------------------------------|
D|----------------------------------------------------------------------------------|
A|----------------------------------------------------------------------------------|
E|----------------------------------------------------------------------------------|

 riff:2c
e|------------------------------------------------------------------------------|
B|------------------------------------------------------------------------------|
G|------------------------------------------------------------------------------|
D|----------------------------------------------------1--3----------------------|
A|---------------1--2-------------1--2--3--3--3--3--3-------3--3--3--3--3-1--2--|
E|-3--3--3--3--3-------3--3--3--3-----------------------------------------------|

 riff:3a
e|-----------------------------------------|
B|-----------------------------------------|
G|-----------------------------------------|
D|---------------1--3----------------------|
A|-3--3--3--3--3-------3--3--3--3--3-1--2--|
E|-----------------------------------------|

 riff:3b
e|-17--14---------17--14---------17--14-----------------|
B|---------14------------13------------12-------14--16--|
G|------------------------------------------------------|
D|------------------------------------------------------|
A|------------------------------------------------------|
E|------------------------------------------------------|

e|-8----12-----8----11-----8------10------8--10---------|
B|---10----------10-----------10------------------------|
G|------------------------------------------------------|
D|------------------------------------------------------|
A|------------------------------------------------------|
E|------------------------------------------------------|


start with riff:1
then guitar1 play riff:2a - guitar2 riff:2b
riff:2c is a bridge played by guitar1 before riff:3a
then guitar1 play riff:3a - guitar2 riff:3b

It`s easy (if you know this theme).
Good luck.

            
            
Suggest correction
Creating personal tab
Creating personal tab
You can edit any tab online and save it as your Personal.

You can edit, replace or remove any tab part or add personal notes – all changes will be seen only by you.

Personal tabs can be accessed anytime from any device, even offline.
Learn more »
comments
print report bad tab
52 comments total. Showing first comments.
+9 reply
fretman5 0 Apr 08, 2002 08:00 PM

hey man you did a great job on this tab it sounds really awsome!!! thanks

-2 reply
Mykill 10 Apr 29, 2002 08:00 PM

Toire wa doko ni arimasu ka?

+1 reply
grrr7777 10 Apr 29, 2002 08:00 PM

Great Job Man, sweet stuff

guest
Wanna post a correction for this tab? Suggest correction