Oops, an error
Loading. Please wait.

Mission Impossible Theme Bass Tab

version 2
version 2

Whole song

Interactive

19,888 views 3 this week
2 commentsread comments
1 2 3 4 5
please rate
add to favorites
launch autoscroll
font size
0
reset
guitar tuner
Autoscroll
slow
fast
+/-
esc
set tempo
stop
Help us to improve Ultimate-Guitar.com Take our survey!
×
Mission Impossible Theme:

G:|-3-3-3-3---------3-3-3-3-1-2---|
D:|---------1-3-------------------|
A:|-------------------------------|
E:|-------------------------------|

G:|--4------3-----2---------------|
D:|---5-4----4-3---3-2-----1/2----|
A:|-------------------------------|
E:|-------------------------------|

G:|-3-3-3-3---------3-3-3-3-1-2---|
D:|---------1-3-------------------|
A:|-------------------------------|
E:|-------------------------------|


G:|5-7--4-6--3-5---3\1------------|
D:|-6----5----4-------------------|
A:|-------------------------------|
E:|-------------------------------|

G:|-3-3-3-3---------3-3-3-3-1-2---|
D:|---------1-3-------------------|
A:|-------------------------------|
E:|-------------------------------|

G:|5-8--4-7--3-6---3\1------------|
D:|-6----5----4-------------------|
A:|-------------------------------|
E:|-------------------------------|

G:|-3-3-3-3---------3-3-3-3-1-2---|
D:|---------1-3-------------------|
A:|-------------------------------|
E:|-------------------------------|

Hopefully its right (it sounds right but I dont know ill let you be the judge of that)... Enjoy...
Suggest correction
Give kudos to tab author, rate the tab!
1 2 3 4 5
comments
print report bad tab
2 comments total.
0 reply
PelleRigter 10 wrote on July 29 2013, 03:49 pm

did you tab it..upside down? i think te G should be te E etc..

0 reply
TomislavSimic 32 wrote on April 5 2015, 09:04 pm

Clearly wrong. Please explain why did you choose 1 star rating for this tab?
Your answer will help tab's contributor to improve it.

guest
You may want to rate the tab now too:
select rating
Wanna post a correction for this tab? Suggest correction