Oops, an error
Loading. Please wait.

Mission Impossible Theme Bass

version 3
version 3

Whole song

Interactive

15,881 views 93 this week
1 commentread comment
1 2 3 4 5
x 11
add to favorites
launch autoscroll
font size
0
reset
guitar tuner
×
Best way to learn
"Mission Impossible Theme"
Autoscroll
slow
fast
+/-
esc
set tempo
stop
Author
Difficulty
G|----------|----------|4x
D|----------|----------|
A|------1-3-|----------|
E|3--3------|3--3--1-2-|

G|----------------|----------------|4x
D|----------------|----------------|
A|------------1-3-|----------------|
E|3--3--3--3------|3--3--3--3--1-2-|

G|----------------|----------------|2x
D|------------1-3-|----------------|
A|3--3--3--3------|3--3--3--3--1-2-|
E|----------------|----------------|

G|----------------|----------------|2x
D|----------------|----------------|
A|------------1-3-|----------------|
E|3--3--3--3------|3--3--3--3--1-2-|

G|------5-----5---|7x  
D|---5-----5----5-|    
A|3---------------|    
E|----------------| 

G|------5---------|
D|---5-----0--1-3-|
A|3---------------|
E|----------------|
Suggest correction
comments
print report bad tab
1 comment total.
0 reply
biscuit105 10 Mar 28, 2015 04:39 PM

This is actually pretty good thanks

guest
You may want to rate the tab now too:
select rating
Wanna post a correction for this tab? Suggest correction