Oops, an error
Loading. Please wait.

Murray Gold - The Doctor Forever Tab

34 views 1 this week
no commentswrite comment
1 2 3 4 5
3 more votes to show rating
add to favorites
launch autoscroll
font size
0
reset
how to read this tab
guitar tuner
Autoscroll
slow
fast
+/-
esc
set tempo
stop
Help us to improve Ultimate-Guitar.com Take our survey!
×
Author
Difficulty
novice
[Verse 1]

e|-------7--9--10--9--7--7--|-------7--9--10--9--7--9--|-12-14-15--14-12-10----10-12--10-12--|
B|----8---------------------|----8---------------------|--------------------12---------------|
G|-9------------------------|-9------------------------|-------------------------------------|
D|--------------------------|--------------------------|-------------------------------------|
A|--------------------------|--------------------------|-------------------------------------|
E|--------------------------|--------------------------|-------------------------------------|

e|-7--9--10--7--9--------------|-7--9--10--12--10--9--7------7-|-7------7------|-------------|
B|-----------------10--8--7----|-------------------------10----|---10-8---10---|-10--8--7----|
G|---------------------------9-|-------------------------------|-------------7-|----------9--|
D|-----------------------------|-------------------------------|---------------|-------------|
A|-----------------------------|-------------------------------|---------------|-------------|
E|-----------------------------|-------------------------------|---------------|-------------|


[Verse 2]

e|-------7--9--10--7--9--7--------------|-7--9--10--7--9--7------7---------------------------|
B|----8---------------------10--8--7----|--------------------10--------------8--7------------|
G|-9----------------------------------9-|---------------------------9--7--9--------7--9------|
D|--------------------------------------|----------------------------------------------------|
A|--------------------------------------|----------------------------------------------------|
E|--------------------------------------|----------------------------------------------------|

e|-7--9--10--7--9--7------7-----|
B|--------------------10--------|
G|---------------------------9--|
D|------------------------------|
A|------------------------------|
E|------------------------------|


[Bridge]

e|--------------------|--------------|---------------------------|
B|-----------------10-|-----------11-|------------------8-----10-|
G|-------7--9--10-----|-7--9--10-----|-7--9--10--9--10-----9-----|
D|-10-----------------|--------------|---------------------------|
A|--------------------|--------------|---------------------------|
E|--------------------|--------------|---------------------------|


[Verse 3]

e|-------7--9--10--7--9--7--------------|-7--9--10--7--9--7------7---------------------------|
B|----8---------------------10--8--7----|--------------------10--------------8--7------------|
G|-9----------------------------------9-|---------------------------9--7--9--------7--9------|
D|--------------------------------------|----------------------------------------------------|
A|--------------------------------------|----------------------------------------------------|
E|--------------------------------------|----------------------------------------------------|

e|-12-14-15--14-12-10----10-12--10-12-|-7--9--10--7--9--------------------|
B|--------------------12--------------|-----------------10--8--7----------|
G|------------------------------------|---------------------------9-------|
D|------------------------------------|-----------------------------------|
A|------------------------------------|-----------------------------------|
E|------------------------------------|-----------------------------------|

e|-7--9--10--12--10--9--7------7-|-------7--9--10--7--9--7----------------|
B|-------------------------10----|----8---------------------10--8--7------|
G|-------------------------------|-9----------------------------------9---|
D|-------------------------------|----------------------------------------|
A|-------------------------------|----------------------------------------|
E|-------------------------------|----------------------------------------|
Suggest correction
Give kudos to tab author, rate the tab!
1 2 3 4 5
comments
print report bad tab
guest
You may want to rate the tab now too:
select rating
Wanna post a correction for this tab? Suggest correction