Oops, an error
Loading. Please wait.

Natasha Pierre And The Great Comet Of 1812 - No One Else intro tab

100 views 9 this week
no commentswrite comment
1 2 3 4 5
3 more votes to show rating
add to favorites
×
Save as Personal and add changes to this tab that will be seen only by you. Learn more ›
×
You can save this tab as Personal to edit and correct it or add notes. All changes will be seen only by you. Learn more »
launch autoscroll
font size
0
reset
how to read this tab
guitar tuner
edit
Autoscroll
slow
fast
+/-
esc
set tempo
stop
About this tab version
The tuning is F - Bb - D - Db - A - e. I apologize for the unusual tuning, there just was no other way I could get the bass notes in there. All of the treble notes are included, and the first bass note of each measure is included. Enjoy :). Was this info helpful? Yes No
Sheet music: http://www.musicnotes.com/sheetmusic/mtd.asp?ppn=MN0154303

[Intro]
    Dm         Bb         F          F/Db
e |-8-5--8-5-|-8-5--8-5-|-8-5--8-5-|-8--------|
A |-8-5--8-5-|-8-5--8-5-|-8-5--8-5-|-8--------|
Db|----------|----------|----------|-0--------|
D |-0--------|----------|----------|----------|
Bb|----------|-0--------|----------|----------|
F |----------|----------|-0--------|----------|

                         (gradually slow down)
    Dm         Bb         F          F/Db
e |-8-5--8-5-|-8-5--8-5-|-8-5--8-5-|-8--------|
A |-8-5--8-5-|-8-5--8-5-|-8-5--8-5-|-8--------|
Db|----------|----------|----------|-0--------|
D |-0--------|----------|----------|----------|
Bb|----------|-0--------|----------|----------|
F |----------|----------|-0--------|----------|

            
            
Suggest correction
Creating personal tab
Creating personal tab
You can edit any tab online and save it as your Personal.

You can edit, replace or remove any tab part or add personal notes – all changes will be seen only by you.

Personal tabs can be accessed anytime from any device, even offline.
Learn more »
Give kudos to tab author, rate the tab!
1 2 3 4 5
comments
print report bad tab
guest
You may want to rate the tab now too:
select rating
Wanna post a correction for this tab? Suggest correction