Oops, an error
Loading. Please wait.

Once Upon A Time Ending Theme Tab

49 views 3 this week
no commentswrite comment
1 2 3 4 5
3 more votes to show rating
add to favorites
launch autoscroll
font size
0
reset
how to read this tab
guitar tuner
Autoscroll
slow
fast
+/-
esc
set tempo
stop
Help us to improve Ultimate-Guitar.com Take our survey!
×
Author
Difficulty
intermediate
E|----5---4---------7---|----------|
B|-------------7--------|----------|
G|-6-6--6---6----6---6--|-6----6---|
D|--6----6---6----6---6-|---6----6-|
A|----------------------|-----6----|
E|----------------------|----------|

E|-------5---4---------7---|----------|
B|----------------7--------|----------|
G|-6-6-6--6---6----6----6--|-6----6---|
D|--6-6----6---6----6----6-|---6----6-|
A|-------------------------|-----6----|
E|-------------------------|----------|

E|---------5---4-------7--------|
B|----------------7-------------|
G|-6---6--6---6----6----6-------|
D|---6--------------------------|
A|-------0---0---0----0---------|
E|------------------------7-4---|

E|----4--------4-----|
B|-------------------|
G|-------------------|
D|-------------------|
A|---6---6---6-----6-|
E|-7-------7-----7---|
Suggest correction
Give kudos to tab author, rate the tab!
1 2 3 4 5
comments
print report bad tab
guest
You may want to rate the tab now too:
select rating
Wanna post a correction for this tab? Suggest correction