Oops, an error
Loading. Please wait.

Parks And Recreation - Title Theme Tab

25 views 3 this week
no commentswrite comment
1 2 3 4 5
3 more votes to show rating
add to favorites
launch autoscroll
font size
0
reset
how to read this tab
guitar tuner
Autoscroll
slow
fast
+/-
esc
set tempo
stop
Help us to improve Ultimate-Guitar.com Take our survey!
×
Author
Hi guys, I’ve just started watching “Parks and Recreation” and the title music 
really caught my ear so I
thought I’d tab it out for anyone else who might like to give it a shot.


[Intro]

e|----------------------------------------------------------|
B|----5---------6--------5-------3--3-----------------------|
G|----5---------5--------5-------4----5-4-------------------|
D|----5---------7--------5-------5--------------------------|
A|-----------8----------------------------------------------|
E|-8------------------8-------3-----------------------------|

e|----------------------------------------------------------|
B|----5--5-----6----6-5---5---5-----------------------------|
G|----5----7-5----------7-------7-5-7---7-5-4-5-------------|
D|----5-----------------------------------------------------|
A|----------------------------------------------------------|
E|-8--------------------------------------------------------|

e|----------------------------------------------------------|
B|-5-----6----6-5---5----5----------------------------------|
G|---7-5----------7--------7-5------------------------------|
D|-----------------------------6----6-7-9-7-----------------|
A|----------------------------------------------------------|
E|----------------------------------------------------------|

e|----------------------------------------------------------|
B|---------------------------------------10-8---------------|
G|--------------------------------7-9-10------10-9-7--------|
D|-7-9-10-----------7------7-9-10---------------------------|
A|--------8----8-10-----10----------------------------------|
E|----------------------------------------------------------|

e|-7---7--------------------------------||
B|-8---8---10--10---8---8---6---6-------||
G|---------10--10---9---9---7---7----9--||
D|----------------------------------10--||
A|--------------------------------------||
E|--------------------------------------||
Suggest correction
Give kudos to tab author, rate the tab!
1 2 3 4 5
comments
print report bad tab
guest
You may want to rate the tab now too:
select rating
Wanna post a correction for this tab? Suggest correction