Oops, an error
Loading. Please wait.

Personal Taste - Creating Love Tab

1,530 views 1 this week
1 commentread comment
1 2 3 4 5
please rate
add to favorites
launch autoscroll
font size
0
reset
how to read this tab
guitar tuner
Autoscroll
slow
fast
+/-
esc
set tempo
stop
Help us to improve Ultimate-Guitar.com Take our survey!
×
Author
Difficulty
intermediate
Standard TUNING
tabbed by raffybalares@yahoo.com you can add me up if you like.

this is not the accurate plucking :D if this tab got some errors please notify me 
or just comment below to make some correction thank you

i dedicated this song to my girlfriend bcoz she really loves Korean Drama's 
particularly Personal Taste

http://www.youtube.com/watch?v=QG8CwdpTl-U  Sound Guide 


0:13

e|----------------------------|------------------------------------|
b|---9-9-9-7-7-5s7-7-5-7s9s2--|--5----5----5-7----------6----------|
g|----------------------------|----6p---7p----------5h7---7-5------|
d|----------------------------|----------------5h7-----------------|
a|----------------------------|------------------------------------|
e|----------------------------|------------------------------------|


    with this ( ) are optional 
e|---(5s7)--(7)----------------------------------------------------|
b|---10s12--12--9-7-5--5s7-7-5-7s9--7-9-9s10--9-7-7s9-5------------|
g|-----------------------------------------------------------------|
d|-----------------------------------------------------------------|
a|-----------------------------------------------------------------|
e|-----------------------------------------------------------------|

e|-----------------------------------------------------------------|
b|---7-9-9s10-9h10-10s12-12-7s9-7-5--------------------------------|
g|-----------------------------------------------------------------|
d|-----------------------------------------------------------------|
a|-----------------------------------------------------------------|
e|-----------------------------------------------------------------|



Refrain 

0:36

e|-----------------------------------------------------------------|
b|---------4-5-----4----4-4-5-7-7s9-9-7-7s9-5----------------------|
g|---6-6-6-----------6p--------------------------------------------|
d|-----------------------------------------------------------------|
a|-----------------------------------------------------------------|
e|-----------------------------------------------------------------|

e|-------------------------------|---------------------------------|
b|-----9s10-10-9-10-9-7-5-7-5----|-2s4-4-5-7---5-7-7s9-9-7-7s9-5---|
g|---9------------------------6--|-----------------------------(9)-|
d|-------------------------------|---------------------------------|
a|-------------------------------|---------------------------------|
e|-------------------------------|---------------------------------|

Optional its your choice
e|-(5--7--7--5--7--5--7--9-)-----|
b|--10-12-12-10-12-10-12-14------|
g|-------------------------------|
d|-------------------------------|
a|-------------------------------|
e|-------------------------------|



Chorus

1:00

e|-------5s7-7---------5s7-7---------5s7-7-------------------------|
b|---5-7-------5-4-5-5-------5-4-5-5-------------------------------|
g|-----------------------------------------------------------------|
d|-----------------------------------------------------------------|
a|-----------------------------------------------------------------|
e|-----------------------------------------------------------------|

e|---4--------------4---------------5s7-7-------5s7-7-7s9-7-5-4h5------|
b|-----7-5------5-7---5---5s7-5-----------5-4-5-------------------7-5--|
g|---------4------------4----------------------------------------------|
d|---------------------------------------------------------------------|
a|---------------------------------------------------------------------|
e|---------------------------------------------------------------------|

e|-------4---------4-----------------|
b|---5-7---5---5-7---5---5s7-5-------|
g|-----------4---------4-------------|
d|-----------------------------------|
a|-----------------------------------|
e|-----------------------------------|

Instrumental ( Piano ) 

better if you play at the beginning again :D

Then Refrain and Chorus again




Bridge

2:40

e|------------------------11s12------8-10-------------------------------|
b|---4s5-5-5s7-7-5s7-7-5--------8s10------7s8-6-6---6-----6--6---6s8----|
g|------------------------------------------------7---5-7---7--7-----5-7|
d|----------------------------------------------------------------------|
a|----------------------------------------------------------------------|
e|----------------------------------------------------------------------|

e|-------------8-8-8---8---10------|
b|4-7-7-4-7br--------10------------|
g|---------------------------------|
d|---------------------------------|
a|---------------------------------|
e|---------------------------------|




or you can use this a little bit changes

e|----------------------------11s12------8-10-------------------------------|
b|----------------------------------8s10------7s8-6-6---6-----6--6----6s8---|
g|---8s9-9-8s11-11-9s11-11-9--------------------------7---5-7---7--7-----5-7|
d|--------------------------------------------------------------------------|
a|--------------------------------------------------------------------------|
e|--------------------------------------------------------------------------|

e|-------------8-8-8---8---10------|
b|4-7-7-4-7br--------10------------|
g|---------------------------------|
d|---------------------------------|
a|---------------------------------|
e|---------------------------------|


Gibeun joheunil hanaga saeng gyeoseo
Neoraneun sarameul mannage dwenil
Geurigo, sarang-i itdaneun geol alge dwenil
Jinja sarang iran eoteon mashilka
Dalkomhan gi-bun ilka
Eodu un golmok gil, kiseun eoteolka
Haneuri hayae jigo, yepeun jong soriga deulilka
Sarang iran mal, eowu liji anhneun mal
Dareun sesange iri deu, 
Meolge neukyeo jyeoteon mal
Jaku gaseum man twigo, 
Nunape areun georineun
Sarangeul eoteohke hae
I love you, ireon gibeun sarangin gabwayo
Geudae eobshi nan useul su eopjyo
Geudae sarangi go shipeun mame na
Dala jigo ina bwayo
Naye ma eumi gi ureojyeo gayo
Chaga woteon mareun modu jeoyo, 
Oh Oh, Oh nun muri nado
Na geudaemyeon dweyo, my love
Oh oh oh, Nal ana jwo dalkom hage gamsajwo
Neul hamke hago shipda malhaejwo
Toh nal dugeun georige hae nal seolege hae
Jakuman teolige hae, eoteokhae
Budeureo un chokoli cheoreom, dalkom hage
Haru haru deo gipge, algo shipge
Chaga un eoreum gagiman han nae mamdo nogyeojul
Geudaeye tateuthan sarang ineul cheo eumgwa gagil
Gaseumi twigo, eolguri bulgeo jigo
Geudae eopneun ilbun ilcho, 
Shigyeman boneun naya
Amu geoto anin mal, 
Ulgo uneun nae moseup
Sarang hanabwa
I love you, ireon gibeun sarangin gabwayo
Geudae eobshi nan useul su eopjyo
Geudae sarangi go shipeun mame na
Dala jigo ina bwayo
Naye ma eumi gi ureojyeo gayo
Chaga woteon mareun modu jeoyo, 
Oh Oh~, nun muri nado
Na geu-daemyeon dweyo, my love
Saeng gak maneuro, nan nunmuri na, 
Geudae-ga meoli teonal kabwa
Pyohyeon haji mothae jiman, 
Nado alji mothae jiman, imi neol sarang hanabwa
I love you, nan pinkeubi sesang soge saljyo, 
Naegen onjongil haesal bichwoyo
Geudae yeoja igo shipeun mamena
Dala jigo ina bwao
Geudae gyeoti gajang pyeon han jariyo, 
Nune gajang damgo shipeun geudaejyo, 
Oh baby Oh, jigeumi daero
Nal sarang haeyo, my love
Suggest correction
What's this?
You can suggest a correction to this tab. Community and Mods will review your correction and vote to approve or reject it.
comments
We did not receive enough feedback on this tab! Please rate:
print report bad tab
1 2 3 4 5
1 comment total.
0 reply
AkumaL 26 wrote on February 12 2014, 09:16 am

haven't tried playing this song yet but thanks! i love this song.. and the artists.. :3 kasahamnidaaaaa! ^_^

guest
You may want to rate the tab now too:
select rating
Please do not post tabs as comments. Select "correction" instead!