Oops, an error
Loading. Please wait.

Pirates Of The Caribbean - Hes A Pirate Tab

version 1
version 1

Acoustic

1,357,745 views 4,191 this week
19 commentsread comments
1 2 3 4 5
excellent!
x 236
add to favorites
launch autoscroll
font size
0
reset
how to read this tab
guitar tuner
Autoscroll
slow
fast
+/-
esc
set tempo
stop
Help us to improve Ultimate-Guitar.com Take our survey!
×
Author
http://www.youtube.com/watch?v=jvdQudeej4Q


e|--------------------------------------------------|
B|--------------------------------------------------|
G|--------------------------------------------------|
D|--------------------------------------------------|
A|-5---5-5--5-5--5-5-5---5---5-5--5-5--5-5-5--------|
E|--------------------------------------------------|

e|--------------------------------------------------|
B|--------------------------------------------------|
G|---------------------------------------------7----|
D|--------------------------------------------------|
A|-5---5-5--5-5--5-5-5---5---5-5--5-5--5-5-5---5----|
E|--------------------------------------------------|
  
      Dm        Bb        C        Dm
e|--------------------------------------------------|
B|-------------5-6-6---6-8-5-5----------------------|
G|---5-7-7---7-------------------7-5-5h7------------|
D|-7------------------------------------------------|
A|--------------------------------------------------|
E|--------------------------------------------------|

      Bb        F         C        Dm
e|--------------------------------------------------|
B|-------------5-6-6---6-8-5-5----------------------|
G|---5-7-7---7-------------------7-5-7~~------------|
D|-7------------------------------------------------|
A|--------------------------------------------------|
E|--------------------------------------------------|

      Dm        Gm        Am       Dm
e|-----------------------5-6-6---5---5--------------|
B|-------------6-8-8---8-----------8----------------|
G|---5-7-7---7-------------------------7------------|
D|-7------------------------------------------------|
A|--------------------------------------------------|
E|--------------------------------------------------|

      Bb       Dm         A7       A7
e|----------5-6-------------------------------------|
B|---6-8-8------------6-5-5-------------------------|
G|-7------------7---7---------7-5-5h7---------------|
D|--------------------------------------------------|
A|--------------------------------------------------|
E|--------------------------------------------------|

      Dm        Bb        C        Dm
e|--------------------------------------------------|
B|-------------5-6-6---6-8-5-5----------------------|
G|---5-7-7---7-------------------7-5-5h7------------|
D|-7------------------------------------------------|
A|--------------------------------------------------|
E|--------------------------------------------------|

      Bb        F         C        Dm
e|--------------------------------------------------|
B|-------------5-6-6---6-8-5-5----------------------|
G|---5-7-7---7-------------------7-5-7~~------------|
D|-7------------------------------------------------|
A|--------------------------------------------------|
E|--------------------------------------------------|

      Dm        Gm        Am       Dm
e|-----------------------5-6-6---5---5--------------|
B|-------------6-8-8---8-----------8----------------|
G|---5-7-7---7-------------------------7------------|
D|-7------------------------------------------------|
A|--------------------------------------------------|
E|--------------------------------------------------|

      Bb       Dm         A7       Dm
e|----------5-6-------------------------------------|
B|---6-8-8------------6-5-5-------------------------|
G|-7------------7---7---------7-5-7-----------------|
D|--------------------------------------------------|
A|--------------------------------------------------|
E|--------------------------------------------------|

      C   Bb    A     A
e|-------------------1------------------------------|
B|---4/5-6-6-8--10\----3----------------------------|
G|-7-----7-7-7---7\------2--------------------------|
D|--------------------------------------------------|
A|--------------------------------------------------|
E|--------------------------------------------------|

     Gm      Am
e|-6------------------------------------------------|
B|-6-6----------------------------------------------|
G|-----7-----7-7-7-10-------------------------------|
D|-------8---7-7-7--7-------------------------------|
A|--------------------------------------------------|
E|--------------------------------------------------|

      Dm     Dm     C    Dm
e|--------------------------------------------------|
B|-10-10-10-11-10---8-8-8-8-10----------------------|
G|-10-10-10---------9-9-9---------------------------|
D|--------------------------------------------------|
A|--------------------------------------------------|
E|--------------------------------------------------|

      Dm     Dm     C    Dm
e|--------------------------------------------------|
B|-10-10-10-11-10---6/8-6-5-------------------------|
G|-10-10-10---------7/9-7---7-----------------------|
D|--------------------------------------------------|
A|--------------------------------------------------|
E|--------------------------------------------------|


Plucking kicks in here.
I will use 2 bars here 1 for tab and 2nd for pluck
e|--------------------------------------------------|
B|--------8-10-8---------8-10-8---------------------|
G|-7-9-10--------10-9-10----------------------------|
D|--------------------------------------------------|
A|--------------------------------------------------|
E|--------------------------------------------------|
Pluck:
e|--------------------------------------------------|
B|-----3-----3-----1--------------------------------|
G|---2-----2-----0-------2--------------------------|
D|-0-----0-------------3----------------------------|
A|-------------3------------------------------------|
E|-------------------3------------------------------|

e|--------------------------------------------------|
B|----8-10-8----------------------------------------|
G|-10--------10-9-10-9-7-9-5-7----------------------|
D|--------------------------------------------------|
A|--------------------------------------------------|
E|--------------------------------------------------|
Pluck:
e|--------------------------------------------------|
B|-----------------3-----3--------------------------|
G|-----0-----2---2-----2----------------------------|
D|---2-----0---0-----0------------------------------|
A|-3-----0------------------------------------------|
E|--------------------------------------------------|

e|--------------------------------------------------|
B|-------------8----8-10-8--------------------------|
G|-7-9-10-9-10---10--------10-7---------------------|
D|--------------------------------------------------|
A|--------------------------------------------------|
E|--------------------------------------------------|
Pluck:
e|--------------------------------------------------|
B|-----3-----3-----1--------------------------------|
G|---2-----2-----0-------2--------------------------|
D|-0-----0-------------3----------------------------|
A|-------------3------------------------------------|
E|-------------------3------------------------------|

e|--------------------------------------------------|
B|--------8--10-8--------8--------------------------|
G|-7-9-10---------7-9-10---9-7-9-5------------------|
D|--------------------------------------------------|
A|--------------------------------------------------|
E|--------------------------------------------------|
Pluck:
e|--------------------------------------------------|
B|--------------------------------------------------|
G|-----3-----3-----5-----5--------------------------|
D|---------5-----7-----7----------------------------|
A|---5----------------------------------------------|
E|-3-----3-----5-----5------------------------------|

   Dm Bb C        F       Gm Am Am     Dm
e|--------------------------------------------------|
B|-10-11--------------------------------------------|
G|--7-10-14-14-14-14\12---12-10-9-10-9-7------------|
D|-------15-15-15-15------12-10-7--7-7-7------------|
A|--------------------------------------------------|
E|--------------------------------------------------|

   Dm Bb C        F       Gm Am Am     Dm
e|--------------------------------------------------|
B|-10-11--------------------------------------------|
G|--7-10-14-14-14-14\12---12-10-9-10-9-7------------|
D|-------15-15-15-15------12-10-7--7-7-7------------|
A|--------------------------------------------------|
E|--------------------------------------------------|

         Dm       Bb        C        F       Gm Am Am  Dm
e|-------------------------------------------------------|
B|-------10-------11--------10-10-10-10\8----8-6-5-6-5---|
G|-----10-------10-------10-10-10-10-10\8----9-7-7-----7-|
D|---12-------12-------12--------------------------------|
A|-12-------12-------12----------------------------------|
E|-------------------------------------------------------|

         Dm       Bb        C        F       Gm Am Am  Dm
e|-------------------------------------------------------|
B|-------10-------11--------10-10-10-10\8----8-6-5-6-5---|
G|-----10-------10-------10-10-10-10-10\8----9-7-7-----7-|
D|---12-------12-------12--------------------------------|
A|-12-------12-------12----------------------------------|
E|-------------------------------------------------------|


***********************************
| /   Slide up
| \   Slide down
| h   Hammer-on
***********************************
Suggest correction
comments
print report bad tab
19 comments total. Showing first comments.
+9 reply
GGeck 10 wrote on March 24 2009, 10:09 pm

ehm... the best yet :)

+5 reply
scinide 10 wrote on March 28 2009, 08:13 am

Superb

+6 reply
Mariev 10 wrote on May 6 2009, 02:22 pm

Nice tab;)

guest
You may want to rate the tab now too:
select rating
Please do not post tabs as comments. Select "correction" instead!