Oops, an error
Loading. Please wait.

Pirates Of The Caribbean - Hes A Pirate Bass Tab

version 1
version 1

Whole song

60,947 views 234 this week
1 commentread comment
1 2 3 4 5
excellent!
x 10
add to favorites
launch autoscroll
font size
0
reset
guitar tuner
Tab Pro tools
  • play this tab
  • loop segment
  • change instrument
  • show fretboard
  • metronome
Autoscroll
slow
fast
+/-
esc
set tempo
stop
Contributor
Difficulty
intermediate
Tabbed by http://fr.youtube.com/user/PennyVinchenzo (You can watch my video for the timing)
Standard Tuning: E,A,D,G

Part 1

 G-----------------------------------------------------|
 D-----------------------------------------------------|
 A---5-55-55-5555--------------------------------------|2x
 E-----------------------------------------------------|

Part 2
 G-----------------------------------------------------|
 D----------233--3522----------------------------------|
 A--0355--5-----------535------------------------------|2x
 E-----------------------------------------------------|

Part3
 G-----------------33202------------------------------|
 D----------2-5555------3-0233572--532----------------|
 A--0355--5----------------------------535------------|1x
 E----------------------------------------------------|

Repeat Part 2 and 3


 G---------------7-7--32--------2----------------------|
 D------33-5------7-----3-----3------------------------|
 A---55------2--------------5--------------------------|1x
 E-----------------------------------------------------|


 G-----------------------------------------------------|
 D---77787-55557-77787--5320---------------------------|
 A-----------------------------------------------------|1x
 E-----------------------------------------------------|

 G-------575323575--3575323202-0-----------------------|
 D---578----------------------3------------------------|
 A-----------------------------------------------------|1x
 E-----------------------------------------------------|

 G-------575357532--0235783535202----------------------|
 D---578-------------------------3---------------------|
 A-----------------------------------------------------|1x
 E-----------------------------------------------------|

 G-----------------------------------------------------|
 D---7-8-7777-5-5-3-2-3-2-0----------------------------|
 A-----------------------------------------------------|2x
 E-----------------------------------------------------|


 G-----------------------------------------------------|
 D---0007-0008-00077(10)75-5-3-2-3-2-0-----------------|
 A-----------------------------------------------------|2x
 E-----------------------------------------------------|
comments
print report bad tab
1 comment total.
+1 reply
emfau wrote on December 12 2013, 06:53 pm

part 3 fix ;)

 G-------------------22---------------2-------------|
D----------2-33-3-5----535-----2-33-5------322302----|
A--0355--5-----------------5-5----------55----------|1x
E---------------------------------------------------|


better ;)

I want to post or [tab]
guest
You may want to rate the tab now too:
select rating
Please do not post tabs as comments. Select "correction" instead!