Oops, an error
Loading. Please wait.

Pirates Of The Caribbean - Hes A Pirate Bass Tab

version 1
version 1

Whole song

68,884 views 168 this week
1 commentread comment
1 2 3 4 5
x 11
add to favorites
launch autoscroll
font size
0
reset
guitar tuner
Autoscroll
slow
fast
+/-
esc
set tempo
stop
Help us to improve Ultimate-Guitar.com Take our survey!
×
Author
Difficulty
intermediate
http://fr.youtube.com/user/PennyVinchenzo (You can watch my video for the timing)


[Part 1]

 G|---------------------------------------------------------------------|
 D|---------------------------------------------------------------------|
 A|---5---5-5---5-5---5-5-5-5-------------------------------------------|2x
 E|---------------------------------------------------------------------|

 
[Part 2]

 G|----------------------------------------------------------------------------|
 D|------------------2-3-3-----3-5-2-2-----------------------------------------|
 A|--0-3-5-5-----5-----------------------5-3-5---------------------------------|2x
 E|----------------------------------------------------------------------------|

 
[Part 3]

 G|--------------------------------3-3-2-0-2---------------------------------------------------|
 D|------------------2---5-5-5-5-------------3---0-2-3-3-5-7-2-----5-3-2-----------------------|
 A|--0-3-5-5-----5---------------------------------------------------------5-3-5---------------|1x
 E|--------------------------------------------------------------------------------------------|

(Repeat Part 2 and 3)


 G|---------------------------7---7-----3-2-----------------2-------------------------------|
 D|---------3-3---5-------------7-----------3-----------3-----------------------------------|
 A|---5-5-------------2-----------------------------5---------------------------------------|1x
 E|-----------------------------------------------------------------------------------------|


 G|------------------------------------------------------------------------------|
 D|---7-7-7-8-7---5-5-5-5-7---7-7-7-8-7-----5-3-2-0------------------------------|
 A|------------------------------------------------------------------------------|1x
 E|------------------------------------------------------------------------------|

 G|-----------5-7-5-3-2-3-5-7-5-----3-5-7-5-3-2-3-2-0-2---0-----------------------------|
 D|---5-7-8---------------------------------------------3-------------------------------|
 A|-------------------------------------------------------------------------------------|1x
 E|-------------------------------------------------------------------------------------|

 G|-----------5-7-5-3-5-7-5-3-2-----0-2-3-5-7-8-3-5-3-5-2-0-2----------------------------|
 D|---5-7-8---------------------------------------------------3--------------------------|
 A|--------------------------------------------------------------------------------------|1x
 E|--------------------------------------------------------------------------------------|

 G|-------------------------------------------------------------------------------------|
 D|---7---8---7-7-7-7---5---5---3---2---3---2---0---------------------------------------|
 A|-------------------------------------------------------------------------------------|2x
 E|-------------------------------------------------------------------------------------|


 G|---------------------------------------------------------------------------------------|
 D|---0-0-0-7---0-0-0-8---0-0-0-7-7-(10)7-5---5---3---2---3---2---0-----------------------|
 A|---------------------------------------------------------------------------------------|2x
 E|---------------------------------------------------------------------------------------|



************************************

| (n)  Ghost note

************************************
Suggest correction
comments
print report bad tab
1 comment total.
+3 reply
emfau 10 Dec 12, 2013 06:53 PM

part 3 fix ;)

 G-------------------22---------------2-------------|
D----------2-33-3-5----535-----2-33-5------322302----|
A--0355--5-----------------5-5----------55----------|1x
E---------------------------------------------------|


better ;)

guest
You may want to rate the tab now too:
select rating
Wanna post a correction for this tab? Suggest correction