Oops, an error
Loading. Please wait.

Pirates Of The Caribbean - Hoist The Colours tab

version 3
version 3

Whole song

169 views 1 this week
no commentswrite comment
1 2 3 4 5
3 more votes to show rating
add to favorites
×
Save as Personal and add changes to this tab that will be seen only by you. Learn more ›
×
You can save this tab as Personal to edit and correct it or add notes. All changes will be seen only by you. Learn more »
launch autoscroll
font size
0
reset
how to read this tab
guitar tuner
edit
Autoscroll
slow
fast
+/-
esc
set tempo
stop
[Intro]
   Em
e|--------------------------|--------------------------|
B|--------------------------|--------------------------|
G|--------------------------|--------------------------|
D|--------------------------|---------------------2----|
A|--------------------------|--------------------------|
E|-0-----------0------------|-0-----------0------------|
                                                  The

[Verse]
   Em                         Am          Em
e|--------------------------|--------------------------|--------------|
B|-0-----0-0---0-------0-0--|-1-----0-0----------------|---------0----|
G|--------------------------|--------------------------|--------------|
D|--------------------------|-------------2------------|--------------|
A|--------------------------|-0------------------------|--------------|
E|-0-----------0------------|-------------0------------|-0------------|
   king and his men stole the queen from her bed                and

  (Em)                        B7
e|-0-------0---0---2---0----|--------------------------|
B|--------------------------|-4-------------------0----|
G|--------------------------|--------------------------|
D|--------------------------|--------------------------|
A|--------------------------|-2-----------2------------|
E|-0-----------0------------|--------------------------|
  bound   her  in____  her    bones.              The

  (B7)                        
e|-2-------1---2-------3----|-2------------------------|
B|--------------------------|---------4---0------------|
G|--------------------------|--------------------------|
D|--------------------------|--------------------------|
A|-2-----------2------------|-2-----------2------------|
E|--------------------------|--------------------------|
  seas     be  ours    and    by      the pow'rs   

  (B7)                        Em
e|-2-----3-2----------------|-0------------------------|
B|-------------0-------3----|--------------------------|
G|--------------------------|--------------------------|
D|--------------------------|--------------------------|
A|-2-----------2------------|--------------------------|
E|--------------------------|-0-----------0------------|     


[Chorus]
   Em
e|-0------------------------|-0------------------------|
B|-0-----------0------------|-1-----------0------------|
G|-0------------------------|-2-----------0------------|
D|-2------------------------|-2-----------2------------|
A|-2------------------------|-0-----------2------------|
E|-0-----------0------------|-------------0------------|
   Yo          ho,            all         hands                                              

  (Em)                        B7
e|-0-------0---3---2---0----|-2------------------------|
B|-0------------------------|-0------------------------|
G|-0------------------------|-2------------------------|
D|-2------------------------|-1------------------------|
A|-2------------------------|-2-----------2------------|
E|-0-----------0------------|--------------------------|
   Hoist   the co____- lours  high.                

  (B7)                        
e|-2------------------------|-2-------2----------------|
B|-0-----------0------------|-0-----------0-0----------|
G|-2------------------------|-2------------------------|
D|-1------------------------|-1------------------------|
A|-2-----------2------------|-2-----------2------------|
E|--------------------------|--------------------------|
   Heive,      ho,            thieves and beggars         

  (B7)                        
e|-2-----3-2----------------|-0------------------------|
B|-0-----------0-------3----|-0------------------------|
G|-2------------------------|-0------------------------|
D|-1------------------------|-2------------------------|
A|-2-----------2------------|-2------------------------|
E|--------------------------|-0-----------0------------|
   Ne_____-ver shall   we     die.          


[Interlude]
   Em
e|--------------------------|--------------------------|
B|--------------------------|--------------------------|
G|--------------------------|--------------------------|
D|--------------------------|---------------------2----|
A|--------------------------|--------------------------|
E|-0-----------0------------|-0-----------0------------|
                                                  Now 

[Verse]
   Em                         Am          Em
e|--------------------------|--------------------------|--------------|
B|-0-------0---0-------0----|-1---1---0----------------|---------0----|
G|--------------------------|--------------------------|--------------|
D|--------------------------|-------------2------------|--------------|
A|--------------------------|-0------------------------|--------------|
E|-0-----------0------------|-------------0------------|-0------------|
   some   have died    and    some are a- live                   and

  (Em)                        B7
e|-0-------0---0---2---0----|--------------------------|
B|--------------------------|-4-------------------0-0--|
G|--------------------------|--------------------------|
D|--------------------------|--------------------------|
A|--------------------------|-2-----------2------------|
E|-0-----------0------------|--------------------------|
   o____-thers sail on the   sea                With the

  (B7)                        
e|-2-------1-1-2-------3-3--|-2---2--------------------|
B|--------------------------|---------4---0-------0----|
G|--------------------------|--------------------------|
D|--------------------------|--------------------------|
A|-2-----------2------------|-2-----------2------------|
E|--------------------------|--------------------------|
  keys   to the cage  and the de- vil to  pay.    We

  (B7)                        Em
e|-2-----3-2----------------|-0------------------------|
B|-------------0-------3----|--------------------------|
G|--------------------------|--------------------------|
D|--------------------------|--------------------------|
A|-2-----------2------------|--------------------------|
E|--------------------------|-0-----------0------------|     
   la___-y to  fidd-   ler's  green.


[Chorus]
   Em
e|-0------------------------|-0-------0----------------|
B|-0-----------0------------|-1-----------0-0----------|
G|-0------------------------|-2-----------0------------|
D|-2------------------------|-2-----------2------------|
A|-2------------------------|-0-----------2------------|
E|-0-----------0------------|-------------0------------|
   Yo          ho,            haul    to- gether,                                             

  (Em)                        B7
e|-0-------0---3---2---0----|-2------------------------|
B|-0------------------------|-0------------------------|
G|-0------------------------|-2------------------------|
D|-2------------------------|-1------------------------|
A|-2------------------------|-2-----------2------------|
E|-0-----------0------------|--------------------------|
   Hoist   the co____- lours  high.                

  (B7)                        
e|-2------------------------|-2-------2----------------|
B|-0-----------0------------|-0-----------0-0----------|
G|-2------------------------|-2------------------------|
D|-1------------------------|-1------------------------|
A|-2-----------2------------|-2-----------2------------|
E|--------------------------|--------------------------|
   Heive,      ho,            thieves and beggars         

  (B7)                        
e|-2-----3-2----------------|-0------------------------|
B|-0-----------0-------3----|-0------------------------|
G|-2------------------------|-0------------------------|
D|-1------------------------|-2------------------------|
A|-2-----------2------------|-2------------------------|
E|--------------------------|-0-----------0------------|
   Ne_____-ver shall   we     die.          


[Interlude]
   Em
e|--------------------------|--------------------------|
B|--------------------------|--------------------------|
G|--------------------------|--------------------------|
D|--------------------------|---------------------2----|
A|--------------------------|--------------------------|
E|-0-----------0------------|-0-----------0------------|
                                                  The 

[Verse]
   Em                         Am          Em
e|--------------------------|--------------------------|--------------|
B|-0-------0-0-0-------0-0--|-1-----1-0----------------|---------0-0--|
G|--------------------------|--------------------------|--------------|
D|--------------------------|-------------2------------|--------------|
A|--------------------------|-0------------------------|--------------|
E|-0-----------0------------|-------------0------------|-0------------|
bell has been raised from its wa-   te-ry grave.                Do you

  (Em)                        B7
e|-0-------0---0---2---0----|--------------------------|
B|--------------------------|-4---------------------0--|
G|--------------------------|--------------------------|
D|--------------------------|--------------------------|
A|--------------------------|-2-----------2------------|
E|-0-----------0------------|--------------------------|
   hear    its sep-ul-chral  tone?                  A

  (B7)                        
e|-2-------1---2-------3----|-2------------------------|
B|--------------------------|---------4---0-------0----|
G|--------------------------|--------------------------|
D|--------------------------|--------------------------|
A|-2-----------2------------|-2-----------2------------|
E|--------------------------|--------------------------|
   call    to  all     pay    heed    the squall  and 

  (B7)                        Em
e|-2-----3-2----------------|-0------------------------|
B|-------------0-------3----|--------------------------|
G|--------------------------|--------------------------|
D|--------------------------|--------------------------|
A|-2-----------2------------|--------------------------|
E|--------------------------|-0-----------0------------|     
   tu__-rn your sail   to    home.


[Chorus]
   Em
e|-0------------------------|-0------------------------|
B|-0-----------0------------|-1-----------0------------|
G|-0------------------------|-2-----------0------------|
D|-2------------------------|-2-----------2------------|
A|-2------------------------|-0-----------2------------|
E|-0-----------0------------|-------------0------------|
   Yo,         ho,            all         hands,                                             

  (Em)                        B7
e|-0-------0---3---2---0----|-2------------------------|
B|-0------------------------|-0------------------------|
G|-0------------------------|-2------------------------|
D|-2------------------------|-1------------------------|
A|-2------------------------|-2-----------2------------|
E|-0-----------0------------|--------------------------|
   hoist   the co____- lours  high.                

  (B7)                        
e|-2------------------------|-2-------2----------------|
B|-0-----------0------------|-0-----------0-0----------|
G|-2------------------------|-2------------------------|
D|-1------------------------|-1------------------------|
A|-2-----------2------------|-2-----------2------------|
E|--------------------------|--------------------------|
   Heive,      ho,            thieves and beggars         

  (B7)                        
e|-2-----3-2----------------|-0------------------------|
B|-0-----------0-------3----|-0------------------------|
G|-2------------------------|-0------------------------|
D|-1------------------------|-2------------------------|
A|-2-----------2------------|-2------------------------|
E|--------------------------|-0-----------0------------|
   Ne_____-ver shall   we     die.          


[Outro]
   Em
e|--------------------------|--------------------------|
B|--------------------------|--------------------------|
G|--------------------------|--------------------------|
D|--------------------------|--------------------------|
A|--------------------------|--------------------------|
E|-0-----------0------------|-0-----------0------------|
                                                  



            
            
Suggest correction
Creating personal tab
Creating personal tab
You can edit any tab online and save it as your Personal.

You can edit, replace or remove any tab part or add personal notes – all changes will be seen only by you.

Personal tabs can be accessed anytime from any device, even offline.
Learn more »
Give kudos to tab author, rate the tab!
1 2 3 4 5
comments
print report bad tab
guest
You may want to rate the tab now too:
select rating
Wanna post a correction for this tab? Suggest correction