Oops, an error
Loading. Please wait.

Pirates Of The Caribbean At Worlds End - Hoist The Colours Tab

40 views 1 this week
no commentswrite comment
1 2 3 4 5
3 more votes to show rating
add to favorites
launch autoscroll
font size
0
reset
how to read this tab
guitar tuner
Autoscroll
slow
fast
+/-
esc
set tempo
stop
Help us to improve Ultimate-Guitar.com Take our survey!
×
Author
Difficulty
novice
About this tab version
It's an new version of the song that isn't on UG yet. Was this info helpful? Yes No
Hoist the colours by Hans Zimmer
Released: 2007
Movie: Pirates of the Caribbean 3 - At World's End

[Verse]

e|---------------------------------------------------------------------------|
B|---------------------------------------------------------------------------|
G|---------------------------------------------------------------------------|
D|---------------------------2-2-2-4-2-1------4-3-4-5-4-1----4-5-4---1-2-----|
A|---2-2-2-2-2-2-3-2-2---------------------2--------------2--------2---------|
E|-0-------------------0---0-------------------------------------------------|

The king and his men stole the queen from her bed,
And bound her in her bones.
The seas be ours and by the powers,
Where we will, we'll roam.

[Chorus]

e|---------------------------------------------------------------------------|
B|---------------------------------------------------------------------------|
G|---------------------------------------------------------------------------|
D|-2---2---2-2-5-4-2-4---4---4-5-4------4-5-4---1-2--------------------------|
A|---2---2-----------------2-------2-2--------2------------------------------|
E|---------------------------------------------------------------------------|

Yo Ho, haul together,
Hoist the colours high.
Heave Ho, thieves and beggars,
Never shall we die.

and so on and so on...

Have fun playing this :)
Suggest correction
Give kudos to tab author, rate the tab!
1 2 3 4 5
comments
print report bad tab
guest
You may want to rate the tab now too:
select rating
Wanna post a correction for this tab? Suggest correction