Oops, an error
Loading. Please wait.

Pirates Of The Caribbean Theme Bass Tab

version 1
version 1

Whole song

Interactive

50,716 views 18 this week
1 commentread comment
1 2 3 4 5
accurate
x 11
add to favorites
launch autoscroll
font size
0
reset
guitar tuner
Tab Pro tools
  • play this tab
  • loop segment
  • change instrument
  • show fretboard
  • metronome
×
Best way to learn
"Pirates Of The Caribbean Theme"
Autoscroll
slow
fast
+/-
esc
set tempo
stop
This is a song that includes the soundtrack highlights. It's a medley including: "Fog
Bound", "The medallion calls", "To the Pirate's Cave", "The Black Pearl", "One last
shot", and "He's a pirate".

"Fog Bound"                                 /"The medallion calls"
G-------------0--3--2-----------------------/----------------------------00-|
D-0--0--------------------0-0-0-0-0-0-0-0-0-/0-0-0-------3-3-3--------3-3---|
A-------0--1--------------------------------/------3-3-3-------3-3-33-------|
E-------------------------------------------/-------------------------------|

G-2-2-2-------22-2-22--22-2-22-----------------02--3-3-32------0-0-0-2-2-2--|
D-------0-0-0------------------0-00-0--------3-----------0-2-3--------------|
A-------------------------------------3-33-3--------------------------------|
E---------------------------------------------------------------------------|

G-2-2-2----------------------0--2-2-2---------------------------------------|
D-------0--0-----0--------3------------0---00----0----3-3-3-0---00----0-----|
A-------------0-----0--1------------------------3--------------------3------|
E---------------------------------------------------------------------------|
                                                    "To the Pirate's Cave"
G-2-2-222----------------------------00-2-2--2--2--/----------------0-------|
D---------0-0-0-------3-3-3-------3-3--------------/---0-0-0--0-0-3---3-----|
A---------------3-3-3-------3-3-3------------------/---------3--------------|
E--------------------------------------------------/------------------------|

G------------1-0-----------------0---------------------1-0------------------|
D-0-0-0--0-3-----3-----0-0-0--0-0-3---3-----0-0-0--0-3-----3-----0-0-0--0---|
A-------3-----------------3-----------------------3--------------------3----|
E---------------------------------------------------------------------------|
  "The Black Pearl"
G--------------------------------------------------------3--3---------------|
D--3--3--3--3--3-1-------------------------3-------3--1--------3--3--1-1----|
A------------------1-3--3--3--3-3-3--3-3-3----3--3-----------------------3--|
E---------------------------------------------------------------------------|

G--------------------1-1-1-------3-3-3-------5-5-5-------------------1-1-1--|
D-3-3----3-3-3-3-3-3-------1-1-1-------3-3-3-------3-3-3-3-3-3-3-3-3--------|
A---------------------------------------------------------------------------|
E---------------------------------------------------------------------------|
                                                "One last shot"
G-1-1-1--------1-0-----------------------------/-------------------------0-2-|
D----------------3-1-0------------------0--3-2-/--0--------3--0--------------|
A----------------------2-3-3-3-3---------------/-----31--3-------31---3------|
E----------------------------------------------/-----------------------------|
                           "He's a pirate"
G-320--------0------0-----/-0-0---------0-0-------------0-0-0-0---------0-0-|
D----31--------3-1------0-/-----1-1-0-0-----1-1-----3-3---------1-1---------|
A---------3-----------1---/---------------------1-1-----------------3-3-----|
E-------------------------/-------------------------------------------------|

G-----0-0---------0-0---------0-0-------------0-0-0-0---------0-0-----0-0---|
D-1-1-----0-0-0-0-----1-1-0-0-----1-1-----3-3---------1-1---------1-1-------|
A-------------------------------------1-1-----------------3-3---------------|
E---------------------------------------------------------------------------|

G-----0----0-0-3-3---------------------0-0-0-0-3-3------------3-2-0---------|
D-0-0--------------1-1-1-1-----0-0-0-0-------------3-3-3-3----------3-1-----|
A--------------------------3-3------------------------------------------2---|
E---------------------------------------------------------------------------|

G-------------------0-------------------------------------------------------|
D----0--0--0----------------------------------------------------------------|
A-----------------------3---1---1-0-----------------------------------------|
E-----------------------------------3-(hold this note till it fades out)----|

That's it....well I hope you enjoyed this cuz i spent 2 and a half hours typing all this 
Days!
comments
print report bad tab
1 comment total.
0 reply
porter.eliot123 wrote on January 17 2016, 12:37 pm

m m m m m m m m m m m m m m m m m m m m m m m

I want to post or [tab]
guest
You may want to rate the tab now too:
select rating
Please do not post tabs as comments. Select "correction" instead!