Oops, an error
Loading. Please wait.

Pirates Of The Caribbean Theme Tab

version 2
version 2
681,149 views 84 this week
1 commentread comment
1 2 3 4 5
x 11
add to favorites
launch autoscroll
font size
0
reset
how to read this tab
guitar tuner
Autoscroll
slow
fast
+/-
esc
set tempo
stop
Author
Tuning
E A D G B E
e|--------------|--------------|--------------|----------------|
B|--------------|--------------|--------------|-7--------------|
G|--------------|--------------|--------------|-7--------------|
D|--------------|--------------|--------------|----------------|
A|-5-55-55-5555-|-5-55-55-5555-|-5-55-55-5555-|-5--------------|
E|--------------|--------------|--------------|----------------|

e|---------------|--------------|-------|
B|---------------|-6-6--68-55---|-------|
G|-----5-7-7-7-9-|------------7-|-5-5h7-|
D|-4/7-----------|--------------|-------|
A|---------------|--------------|-------|
E|---------------|--------------|-------|

e|-------------|---------------|-------|
B|-------------|-6-6--6-8-55---|-------|
G|---5-7-7-7-8-|-------------7-|-5-5h7-|
D|-7-----------|---------------|-------|
A|-------------|---------------|-------|
E|-------------|---------------|-------|

e|-------------|----------5-6-|-6-5---5--|
B|-------------|-6-6h8-8-8----|-----8----|
G|---5-7-7-7-8-|--------------|--------7-|
D|-7-----------|--------------|----------|
A|-------------|--------------|----------|
E|-------------|--------------|----------|

e|-----------5---|--------------|
B|-----6-6-8-----|---6-5-5-5--5-|
G|-5-7---------7-|-8---------7--|
D|---------------|--------------|
A|---------------|--------------|
E|---------------|--------------|


************************************

| h  Hammer-on
| /  Slide up

************************************
Suggest correction
comments
print report bad tab
1 comment total.
0 reply
llama34 10 May 28, 2007 08:32 AM

Some of the notes are good , Put when u put it together it kinda sounds bad , sorry

guest
You may want to rate the tab now too:
select rating
Wanna post a correction for this tab? Suggest correction