Oops, an error
Loading. Please wait.

Pirates Of The Caribbean Theme tab

version 3
version 3

Interactive

172,163 views 147 this week
5 commentsread comments
1 2 3 4 5
x 17
add to favorites
×
Save as Personal and add changes to this tab that will be seen only by you. Learn more ›
×
You can save this tab as Personal to edit and correct it or add notes. All changes will be seen only by you. Learn more »
launch autoscroll
font size
0
reset
how to read this tab
guitar tuner
edit
Autoscroll
slow
fast
+/-
esc
set tempo
stop
Author
This is the same version as from the movie, but it is more of a rock version. 

e|------------------------------------------------------------------|
B|----------------------------------------5-6-8-8-8p6-6/5-5---------|
G|----------------------------------5-7-7-------------------7p5-5h7-|
D|--------------------------------7---------------------------------|
A|5-55555-5-55555-5-55555-5-55555-----------------------------------|
E|------------------------------------------------------------------|

e|----------------------------------|----------------5-6-6p5-5---|
B|--------5-6-8-8--8p6-6/5----------|--------5-6-8-8--------8----|
G|--5-7-7------------------7p5-5h7--|--5-7-7-------------------7-|
D|7---------------------------------|7---------------------------|
A|----------------------------------|----------------------------|
E|----------------------------------|----------------------------|

e|----------5---------------|
B|----6-8-8-----5-5h6p5---5-|
G|5-7---------7---------7---|
D|--------------------------|
A|--------------------------|
E|--------------------------|

e|17~----17-18~----18-17-17-17-17p15|15-15h17p15----------------------------|
B|-----18--------18-----------------|-----------18~-18h20p18-17-17h18p17-17~|
G|---19--------19-------------------|---------------------------------------|
D|----------------------------------|---------------------------------------|
A|----------------------------------|---------------------------------------|
E|----------------------------------|---------------------------------------|

e|17~----17-18~----18-17-20-17-17p15|15-15h17p15--------------------------|
B|-----18--------18-----------------|-----------18~-18h20p18-17-18-17-15~-|
G|---19--------19-------------------|-------------------------------------|
D|----------------------------------|-------------------------------------|
A|----------------------------------|-------------------------------------|
E|----------------------------------|-------------------------------------|
 
************************************

| h  Hammer-on
| p  Pull-off
| /  Slide 
| ~  Vibrato

************************************

            
            
Suggest correction
Creating personal tab
Creating personal tab
You can edit any tab online and save it as your Personal.

You can edit, replace or remove any tab part or add personal notes – all changes will be seen only by you.

Personal tabs can be accessed anytime from any device, even offline.
Learn more »
comments
print report bad tab
5 comments total. Showing first comments.
0 reply
Shredder Guitar 40 Jul 29, 2007 09:21 PM

its exactly like how that acousitc player on youtube did it - all it needs is the background rhythm chords, and itd be 100% perfect. 5 starts anyway

0 reply
Shredder Guitar 40 Jul 29, 2007 09:22 PM

stars i mean

0 reply
giddy up 36 Sep 14, 2007 06:36 PM

dude you deffenlty left out alot of it

guest
You may want to rate the tab now too:
select rating
Wanna post a correction for this tab? Suggest correction