Oops, an error
Loading. Please wait.

Pirates Of The Caribbean Theme Tab

version 5
version 5

Interactive

529,691 views 996 this week
8 commentsread comments
1 2 3 4 5
excellent!
x 53
add to favorites
launch autoscroll
font size
0
reset
how to read this tab
guitar tuner
Autoscroll
slow
fast
+/-
esc
set tempo
stop
Help us to improve Ultimate-Guitar.com Take our survey!
×
Author
Pirates of the Caribbean Theme V2

V2 (05/03/2009)
+ Added Chords
+ Cleared Tabs

This tab was not made by me, i've found it on youtube:
http://www.youtube.com/watch?v=TQgE-TFXX50


Chords (from the Hemo version)

Dm Bb Am Dm
Bb F C Dm
Dm Gm Am Dm
Bb Dm A A7

Dm Bb Am Dm
Bb F C Dm
Dm Gm Am Dm
Bb Dm A
Dm C Bb A
Gm A

Dm C Dm 
Dm C D

Dm C F Bb
F Am Dm Dm
Dm C F Bb
Gm Am A

Dm Bb F C 
Gm Am Am Dm 



[Intro]

                      (Palm mute 5th Cord)

e|---------------------------------------------------------|
B|---------------------------------------------------------|
G|------------------------------------------------7--------|
D|--------------------------------------------------7--10--|
A|-5--5-5--5---5-5-5-5-5---5--5-5-5---5-5-5-5-----5--------|
E|---------------------------------------------------------|


[Part 1]

   Dm         Bb            Am      Dm  
e|----------------------------------------------|
B|---------------------8------------------------|
G|-7-7--7-9--10-10-10-----9-9-7---------7-------|
D|------------------------------10-10------7-10-|
A|----------------------------------------------|
E|----------------------------------------------|

   Bb         F           C           Dm
e|----------------------------------------------| 
B|---------------------8------------------------|
G|-7-7--7-9--10-10-10-----9-9-7------7----------|
D|-------------------------------10------7--10--|
A|----------------------------------------------| 
E|----------------------------------------------| 

    Dm           Gm                 Am 
e|-------------------------------------| 
B|-------------8-8-8-10-11-11-10-8-10--| 
G|-7-7-7-10----------------------------| 
D|-------------------------------------| 
A|-------------------------------------| 
E|-------------------------------------| 

    Dm             Bb          Dm            A 
e|---------------------------------------------|
B|-----------------8--10-----------------------|
G|-7-7-9-10-10-----------7-7-10--9-9-10-7--9---|
D|---------------------------------------------|
A|---------------------------------------------|
E|---------------------------------------------|
 
   A7             Dm       Bb         Am 
e|-----------------------------------------------|
B|----------------------8------------------------|
G|-7-7--7-9--10-10-10-----9-9-7---------7--------|
D|-------------------------------10-10-----7-10--|
A|-----------------------------------------------|
E|-----------------------------------------------|

    Dm        Bb               F        C                   
e|-----------------------------------------------| 
B|---------------------8-------------------------|
G|-7-7--7-9--10-10-10-----9-9-7------7-----------|
D|-------------------------------10------7--10---|
A|-----------------------------------------------| 
E|-----------------------------------------------| 

   Dm        Dm        Gm         Am
e--------------------------------------| 
B-------------8-8-8-10--11-11-10-8-10--| 
G-7-7-7-10-----------------------------| 
D--------------------------------------| 
A--------------------------------------| 
E--------------------------------------| 
 
     Dm           Bb        Dm          A          Dm          C
e|-------------------------------------------------------------------|
B|----------------8--10----------------------------------8--10----6--|
G|-7-7--9--10-10--------7-7-10--9-9-7-6-7--7-9--10-10-10-------10---7|
D|-------------------------------------------------------------------|
A|-------------------------------------------------------------------|
E|-------------------------------------------------------------------|

      Bb      A          Gm       A
e|------------------------------------------|
B|-------11--8----------5------------6--6-8-|
G|-------------7--------6-7--------6--------|
D|----7--------------8------5---------------|
A|------------------------------------------|
E|------------------------------------------|

     Dm        C         Dm
e|-----------------------------|
B|-10-10-10--11--10-8-8-8--8-10|
G|-10-10-10--10--10-9-9-9--9-9-|
D|-----------------------------|
A|-----------------------------|
E|-----------------------------|

  Dm           C           D
e|-----------------------------|
B|-10-10-10-11--10-6/8\6--5----|
G|-10-10-10-10--10-5/7\5--5----|
D|-----------------------------|
A|-----------------------------|
E|-----------------------------|
  

[Part 2]

(calm part)

   Dm      C       F      Bb       F      Am       Dm       Dm 
e|------------------------------------------------------------------|
B|-------------8-10-8----------8-10-8------8-10-8-------------------|
G|--7---7-9-10--------10-9-10----------10---------10-9-10-9-7-9-5-7-| 
D|--7---------------------------------------------------------------|
A|------------------------------------------------------------------|
E|------------------------------------------------------------------| 

  Dm          C          F          Bb
e|------------------------------------------------|
B|------------8-10-8------8-10-8------------------|
G|----7-9-10------ ---10---------10-7-------------|
D|------------------------------------------------|
A|------------------------------------------------|
E|------------------------------------------------|

   Gm             Am                  A
e|------------------------------------------------|
B|--------------8-10-11----8-----8----------------|
G|------7-9-10-----------7---10----9--7--9--6-----|
D|------------------------------------------------|
A|------------------------------------------------|
E|------------------------------------------------|


[Chorus]

     Dm        Bb           F        C 
e|------------------------------------------|
B|--10-11-10-10-10-10-8-8-6-5-6-5-----------|
G|--10-10-10-10-10-10-9-9-5-5-5-5-7---------|    
D|--------------------------------7---------|
A|------------------------------------------|
E|------------------------------------------|

  Gm            Am        Am        Dm 
e|------------------------------------------|
B|--10-11-10-10-10-10-8-8-6-5-6-5-----------|
G|--10-10-10-10-10-10-9-9-5-5-5-5-7---------|    
D|--------------------------------7---------|
A|------------------------------------------|
E|------------------------------------------|

    Dm        Bb            F               C 
e|--------------------------------------------------|
B|---------10----------11---------------10--10--13--|
G|----9-10--------9-10-----------9-10-10--10--10----|
D|-12----------12-------------12--------------------|
A|--------------------------------------------------|
E|--------------------------------------------------|

   Gm      Am      Am      Dm 
e|------------------------------|
B|-10-8-8--6--5-6-5-------------|
G|-10-9-9--5--5-5-5-7-----------|
D|------------------7-----------|
A|------------------------------|
E|------------------------------|

    Dm        Bb            F               C 
e|--------------------------------------------------|
B|---------10----------11---------------10--10--13--|
G|----9-10--------9-10-----------9-10-10--10--10----|
D|-12----------12-------------12--------------------|
A|--------------------------------------------------|
E|--------------------------------------------------|
 
   Gm      Am      Am      Dm 
e|------------------------------|
B|-10-8-8--6--5-6-5-------------|
G|-10-9-9--5--5-5-5-7-----------|
D|------------------7-----------|
A|------------------------------|
E|------------------------------|



**************************
|/             Slide up
|\             Slide down
**************************
Suggest correction
What's this?
You can suggest a correction to this tab. Community and Mods will review your correction and vote to approve or reject it.
comments
print report bad tab
8 comments total. Showing first comments.
+2 reply
Sagabäng 15 wrote on October 11 2008, 01:40 pm

Nice Work

+1 reply
Spykerwolf 81 wrote on December 10 2008, 05:55 pm

Perfect!

-2 reply
guitar84 49 wrote on March 7 2009, 01:35 pm

Sounds to high for me. But good tab actually!

guest
You may want to rate the tab now too:
select rating
Please do not post tabs as comments. Select "correction" instead!