Oops, an error
Loading. Please wait.

Pirates Of The Carribean - Davy Jones Theme tab

53,717 views 15 this week
9 commentsread comments
1 2 3 4 5
x 29
add to favorites
×
Save as Personal and add changes to this tab that will be seen only by you. Learn more ›
×
You can save this tab as Personal to edit and correct it or add notes. All changes will be seen only by you. Learn more »
launch autoscroll
font size
0
reset
how to read this tab
guitar tuner
edit
Autoscroll
slow
fast
+/-
esc
set tempo
stop
Author
Difficulty
(Let it ring as much as you can!!!)
E---------0--1-----3--5-------6-5---------5-----6--8-----10---5-----3--|
B---3-----------3--------3---------3---------3--------5----------3-----|
G------2-----2--------------------2----------------5-------------------|
D---0-----------------0---------0---------0-------------------0--------|
A----------------------------------------------------------------------|
E----------------------------------------------------------------------|

E---5------5--6-----8--5-----1--3-----5---1--------0--------------0-------------|
B------3---------5--------3--------2------------3--------1-----------3---(1--3)-|
G-------------0------------------------------2-----0--------2----------2-----2--|
D---0------------------0------------------0-----------2--------2-----0-------0--|
A-------------------------------0---------------------------0-------------------|
E-------------------------------------------------------------------------------|
Suggest correction
Creating personal tab
Creating personal tab
You can edit any tab online and save it as your Personal.

You can edit, replace or remove any tab part or add personal notes – all changes will be seen only by you.

Personal tabs can be accessed anytime from any device, even offline.
Learn more »
comments
print report bad tab
9 comments total. Showing first comments.
+5 reply
zernnt 51 Dec 19, 2010 09:56 AM

I have added a few parts you missed. I submitted it but it has to be reviewed.

E---------0--1-----3--5------8-6-5---------5-----6--8-----10--6-5-----3--|
B---3-----------3--------3----------3---------3--------5-----------3-----|
G------2-----2---------------------2----------------5--------------------|
D---0-----------------0----------0---------0--------------------0--------|
A------------------------------------------------------------------------|
E------------------------------------------------------------------------|

E---5------5--6-----8--5-----1--3-----6-5---1--------0--------------0-------------|
B------3---------5--------3--------2--------------3--------1-----------3---(1--3)-|
G-------------0--------------------------------2-----0--------2----------2-----2--|
D---0------------------0--------------------0-----------2--------2-----0-------0--|
A-------------------------------0-----------------------------0-------------------|
E---------------------------------------------------------------------------------|

+3 reply
lafferin 72 Jul 03, 2012 12:57 PM

In the movie, its played on a music box, or on an organ. I played it with an acoustic guitar.

0 reply
llorencaguiar 40 May 18, 2013 12:43 PM

Awesome tab.

guest
You may want to rate the tab now too:
select rating
Wanna post a correction for this tab? Suggest correction