Oops, an error
Loading. Please wait.

Power Rangers Bass Tab

5,853 views 45 this week
no commentswrite comment
1 2 3 4 5
please rate
add to favorites
launch autoscroll
font size
0
reset
guitar tuner
Autoscroll
slow
fast
+/-
esc
set tempo
stop
Help us to improve Ultimate-Guitar.com Take our survey!
×
Author
-------------------------------------------------------------------------------
     Go Go Power Rangers - Ron Wasserman
-------------------------------------------------------------------------------
This is the Long Version from the CD single  http://www.youtube.com/watch?v=I5sVLYQMfe8
This is not the movie or TV version
Probally not 100% precise (just The last fill before the Chorus3)
Tabbed By : TumiChong
e-mail: Darklucki@gmail.com

Tuning:
Intro
G|---------------------------------|
D|---------2-0---0-----------------|
A|-------------2---2-0--0----------|
E|0-x14----------------3-----------|

G|-----------------------------|
D|-----------------------------|
A|-----------------------------|
E|--00-000-x15-0<-end----------|

G|--------------------------5----5---5----|
D|-----5-----7----4-------3---3----5------|
A|---7-----9----6---7---5-----------------|
E|-8----10----7---------------------------|

Verse1
G|-----------------------------|
D|-----------------------------|
A|-----------------------------|
E|--00-000-x15-0<-end----------|

Pre-chorus
G|--------------------------5----5---5----|
D|-----5-----7----4-------3---3----5------|
A|---7-----9----6---7---5-----------------|
E|-8----10----7---------------------------|

G|-------------------------------------------|
D|-------------------------------------------|
A|2-2-3-2-2-3-2-2-3-2-2-3-2-2-3-2-2-3-2-2----|
E|-------------------------------------------|

Chorus
G|--------------------------------------------------------------|
D|--------------------------------------------------------------| x2
A|77-777-777-777-7----------------------------------------------|
E|-----------------88-888-888-888-8-1010-101010-101010-101010-10|<-ten not one and zero

G|-----------------------------------------|
D|----------------------3-2-0---0----------| 
A|8-888-888-888-888-88--------3---3-2-0----|
E|-----------------------------------------|

G|---------------------------------------------------------------------|
D|---------------------------------------------------------------------| 
A|7--5~-7--5~--7-5~-7-5~-7-5~-7-5-77-88-99-1010-11-11-1212-1313-1414---|
E|---------------------------------------------------------------------|	

Verse2
G|-----------------------------|
D|-----------------------------|
A|-----------------------------|
E|--00-000-x15-0<-end----------|

Pre-chorus2
G|--------------------------5----5---5----|
D|-----5-----7----4-------3---3----5------|
A|---7-----9----6---7---5-----------------|
E|-8----10----7---------------------------|

G|--------------------------------------------------------|
D|--------------------------------------9-9-9-9-9-9-9-9---|
A|2-2-3-2-2-3-2-2-3-2-2-3-2-2-3-2-2-3-2-------------------|
E|--------------------------------------------------------|

Chorus2
G|--------------------------------------------------------------|
D|--------------------------------------------------------------| x2
A|77-777-777-777-7----------------------------------------------|
E|-----------------88-888-888-888-8-1010-101010-101010-101010-10|<-ten not one and zero

G|-----------------------------------------|
D|----------------------3-2-0---0----------| 
A|8-888-888-888-888-88--------3---3-2-0----|
E|-----------------------------------------|

G|-------------------------------------------------------------------------------|
D|-------------------------------------------------------------------------------| 
A|7--5~-7--5~--7--5~-7--5~-7--5~-7-5-7-5-7-5-77-88-99-1010-11-11-1212-1313-1414--|
E|-------------------------------------------------------------------------------|	

Solo
G|------------------------------------------------------------------------------------|
D|------------------------------------------------------------------------------------|
A|77-777-777-777-7-88-888-888-888-8-77-777-777-777-7-88-888-888-888-8-55-555-555-555-5|
E|------------------------------------------------------------------------------------|

G|--------------------------------------------------------------------|
D|--------------------------------------------------------------------|
A|88-888-888-888-8-77-777-777-777-7-88-888-888-888-8-77-777-777-777-7-|
E|--------------------------------------------------------------------|

G|10-10-10-10-10-9-7----7-----------------------------------------------------------|
D|-------------------10---10-9-7----------------------------------------------------|
A|-------------------------------55-555-555-555-5-88-888-888-888-8-77-777-777-777-7-|
E|----------------------------------------------------------------------------------|

G|----9--7--5--5--5-4--|
D|---------------------|
A|--7--5--3--3---------|
E|---------------------|

Pre-chorus
G|--------------------------5----5---5----|
D|-----5-----7----4-------3---3----5------|
A|---7-----9----6---7---5-----------------|
E|-8----10----7---------------------------|

G|-------------------------------------------|
D|-------------------------------------------|
A|2-2-3-2-2-3-2-2-3-2-2-3-2-2-3-2-2-3-2-2----|
E|-------------------------------------------|

G|-4-2-0------------|
D|------4-2-0-------|
A|------------4-2---|<--Not Quite sure if it's right
E|------------------|

Chorus3
G|--------------------------------------------------------------|
D|--------------------------------------------------------------| x2
A|77-777-777-777-7----------------------------------------------|
E|-----------------88-888-888-888-8-1010-101010-101010-101010-10|<-ten not one and zero

G|-----------------------------------------|
D|----------------------3-2-0---0----------| 
A|8-888-888-888-888-88--------3---3-2-0----|
E|-----------------------------------------|

Outro
G|-------------------------------------|
D|------------9-9--------------10-10---| x3
A|77-777-777-7-7-7-88-888-888-8--8--8--|
E|-------------------------------------|

G|--------------------------------------------------------------|
D|------------9-9-----------------------------------------------| 
A|77-777-777-7-7-7-8888x8-88x8-888x8-8-8-10-8-7-7777777---------|
E|--------------------------------------------------------------|

Any Comment are welcome :3
Suggest correction
Give kudos to tab author, rate the tab!
1 2 3 4 5
comments
print report bad tab
guest
You may want to rate the tab now too:
select rating
Please do not post tabs as comments. Select "correction" instead!