Oops, an error
Loading. Please wait.

Power Rangers Theme Tab

version 1
version 1

Whole song

Interactive

212,208 views 258 this week
45 commentsread comments
1 2 3 4 5
x 44
add to favorites
launch autoscroll
font size
0
reset
how to read this tab
guitar tuner
×
Best way to learn
"Power Rangers Theme"
Autoscroll
slow
fast
+/-
esc
set tempo
stop
Tuning
D A D G B E
Power Rangers Theme

Guitar 1 = Lead
Guitar 2 = Rhythm/Bass
Guitar 3 = Vocals (not needed)

All Guitars in DADGBe Tuning



[Intro]

  (Guitar 1)
E|-----------------------------------|
B|-----------------------------------|
G|------9-----9-----9------9---9/10--|
D|------9-----9-----9------9---9/10--|
A|------7-----7-----7------7---7/8---|
D|--0-0---0-0---0-0----0-0-----------|
PM * *   * *   * *    * *

  (Guitar 2)
E|-----------------------------------|
B|-----------------------------------|
G|-----------------------------------|
D|--7-7-7-7-7-7-7-7-7--7-7-7---7h8---|
A|--7-7-7-7-7-7-7-7-7--7-7-7---7h8---|
D|--7-7-7-7-7-7-7-7-7--7-7-7---7h8---|
PM * *   * *   * *    * *


  Tapping sequence:
  (Guitar 1)
E|-----------|    |------------|    |-----------|
B|-----------|    |------------|    |--t12p7p4--|
G|--t12p9p5--| x4 |--t14p11p7--| x4 |-----------| x4
D|-----------|    |------------|    |-----------|
A|-----------|    |------------|    |-----------|
D|-----------|    |------------|    |-----------|

  (Guitar 2)
E|-----------|    |------------|    |-----------|
B|-----------|    |------------|    |-----------|
G|--5-5-5-5--| x4 |--7-7-7-7---| x4 |--3-3-3-3--| x4
D|--5-5-5-5--|    |--7-7-7-7---|    |--3-3-3-3--|
A|--3-3-3-3--|    |--5-5-5-5---|    |--1-1-1-1--|
D|-----------|    |------------|    |-----------|

  (Guitar 1)
E|-----------------------------------|
B|--t12p9p5-t12p9p5-t12p9p5-t12p9p5--|
G|-----------------------------------|
D|-----------------------------------|
A|-----------------------------------|
D|-----------------------------------|

  (Guitar 2)
E|-----------------------------------|
B|-----------------------------------|
G|--9-9-9-9-9-9-9-9-9-7-7-7-7-7-7-7--|
D|--9-9-9-9-9-9-9-9-9-7-7-7-7-7-7-7--|
A|--7-7-7-7-7-7-7-7-7-5-5-5-5-5-5-5--|
D|-----------------------------------|

  (Guitar 1)
E|-----------|
B|--t13p8p5--|
G|-----------| x8
D|-----------|
A|-----------|
D|-----------|

  (Guitar 2)
E|-----------|
B|-----------|
G|--5-5-5-5--| x8
D|--5-5-5-5--|
A|--3-3-3-3--|
D|-----------|

  (Guitar 1)
E|------|
B|--12--|
G|------|let ring
D|------|
A|------|
D|------|

  (Guitar 2)
E|-----|
B|-----|
G|--4--|let ring
D|--4--|
A|--2--|
D|-----|


[Main Theme]

 Part 1:

  (Guitar 1)
E|-----19-17---------------19-17--------|
B|--17-------19-20------17-------20-19--|
G|--------------------------------------|
D|--------------------------------------|
A|--------------------------------------|
D|--------------------------------------|

  (Guitar 2)(not sure about this part)
E|----------------------------------------------|
B|----------------------------------------------|
G|--77-7-7-7-7-5-4-4-44-4-55-6-6-6-9-9-9-9-9-9--|
D|--77-7-7-7-7-5-4-4-44-4-55-6-6-6-9-9-9-9-9-9--|
A|--55-5-5-5-5-3-2-2-22-2-33-4-4-4-7-7-7-7-7-7--|
D|----------------------------------------------|
PM **   *   *   *   **   **   *   *   *   *

  (Guitar 3)
E|------------------------------------------|
B|------------------------------------------|
G|------------------------------------------|
D|--15-15-13-15-18-15----15-15-13-15-18-15--|
A|--15-15-13-15-18-15----15-15-13-15-18-15--|
D|--15-15-13-15-18-15----15-15-13-15-18-15--|
  "Go-go Power Rangers! Go go Power Rangers!"

 Part 2

  (Guitar 1)
E|--21--|
B|------|
G|------|(Let ring or tremelo pick)
D|------|
A|------|
D|------|

  (Guitar 2)
E|--------------------------------------------------------|
B|--------------------------------------------------------|
G|--1010-10-10-10-1010-10-10-11-11-11-111111111111111111--|
D|--1010-10-10-10-1010-10-10-11-11-11-111111111111111111--|
A|--8-8--8--8--8--8-8--8--8--9--9--9--9-9-9-9-9-9-9-9-9---|
D|--------------------------------------------------------|
PM * *     *     * *  *     *     *

  (Guitar 3)
E|---------------------------------------------------------|
B|---------------------------------------------------------|
G|---------------------------------------------------------|
D|--17-17-17-17-19-17---18--18-18--18-18---18-18-20-17-16--|
A|--17-17-17-17-19-17---18--18-18--18-18---18-18-20-17-16--|
D|--17-17-17-17-19-17---18--18-18--18-18---18-18-20-17-16--|
  "Go-go Power Rangers,You Mighty Morphin Power Rangers!"



************************************

PM = palm mute
/  = slide up
h  = hammer on
t  = tap
p  = pull off

************************************
Suggest correction
comments
print report bad tab
45 comments total. Showing first comments.
0 reply
slayerbizkit 30 Jan 15, 2005 07:00 PM

\m/ 10/10. Very good tab!

0 reply
no_quarter05 30 May 10, 2005 08:00 PM

I love it

0 reply
snubboy 10 Feb 11, 2006 08:02 AM

this is top notch! 10 out of 10. its legend

guest
You may want to rate the tab now too:
select rating
Wanna post a correction for this tab? Suggest correction