Oops, an error
Loading. Please wait.

Rainbow Nisha Rokubou No Shichinin - Main Theme intro tab

67 views 1 this week
no commentswrite comment
1 2 3 4 5
3 more votes to show rating
add to favorites
×
Save as Personal and add changes to this tab that will be seen only by you. Learn more ›
×
You can save this tab as Personal to edit and correct it or add notes. All changes will be seen only by you. Learn more »
launch autoscroll
font size
0
reset
how to read this tab
guitar tuner
edit
Autoscroll
slow
fast
+/-
esc
set tempo
stop
Author
Difficulty
About this tab version
This version has a more similar sound to the original. Was this info helpful? Yes No
Hey, so this is another version of this intro that i've made.
I can't say for sure that it is on point, but I guess that's
up to you to decide. Also, I may add more onto this tab, so be 
sure to keep an eye out..

And yeh, Enjoy my fellow weebs! :D

[Intro]


e|-------------------------------------------------|
B|-------------------------------------------------|
G|---------------5--------------4-5-4----------4---|
D|-------4/7---------7------7-----------5----------|
A|-------------------------------------------------|
E|-------------------------------------------------|

e|-------------------------------------------0-----|
B|-------------------------------------3-----------|
G|---------------5-----------4-5--2/4-----4--------|
D|-------4/7---------7---7-------------------------|
A|-------------------------------------------------|
E|-------------------------------------------------|


e|------------------0-----------------0------------|
B|---------------------------------------0---------|
G|------------5-----------4-5------4---------------|
D|-------4/7-----7-----7------2/5------------------|
A|-------------------------------------------------|
E|-------------------------------------------------|


e|---------------------0-----------0---------------|
B|---------------0--------0-----0--0---------------|
G|------------2-----2--------2-----1---------------|
D|-------1/3-----------------------2---------------|
A|---------------------------------2---------------|
E|---------------------------------0---------------| 

************************************

| /   Slide up

************************************

            
            
Suggest correction
Creating personal tab
Creating personal tab
You can edit any tab online and save it as your Personal.

You can edit, replace or remove any tab part or add personal notes – all changes will be seen only by you.

Personal tabs can be accessed anytime from any device, even offline.
Learn more »
Give kudos to tab author, rate the tab!
1 2 3 4 5
comments
print report bad tab
guest
You may want to rate the tab now too:
select rating
Wanna post a correction for this tab? Suggest correction