Oops, an error
Loading. Please wait.

Repo The Genetic Opera - Legal Assassin Bass Tab

2,677 views 3 this week
no commentswrite comment
1 2 3 4 5
excellent!
x 3
add to favorites
launch autoscroll
font size
0
reset
guitar tuner
Tab Pro tools
  • play this tab
  • loop segment
  • change instrument
  • show fretboard
  • metronome
Autoscroll
slow
fast
+/-
esc
set tempo
stop
Contributor
-------------------------------------------------------------------------------
		   LEGAL ASSASSIN - Repo! The Genetic Opera
-------------------------------------------------------------------------------


Tabbed By : Stephenx_86 
e-mail: stephenx_86@hotmail.com

Tuning: Standard

0:26 - 0:42
G|-----------------------------------|
D|-----------------------------------| x2
A|-7-7-555-----------7-7-555---------| 
E|---------3-5-357-----------3-5-320-|

0:44 - 0:57
G|--------------------| x2
D|--------------------|
A|--------------------|
E|-3-5-357-0--3-5-320-|

0:57 - 1:02
G|------------------------|
D|------------------------|
A|-5555-5555-566-5555-555-| x1
E|------------------------|

1:05 - 1:19
G|------------------------| x2
D|------------------------|
A|------------------------|
E|-0--3-5-357--0--3-5-320-|

1:19 - 1:25
G|----------------------------|
D|----------------------------|
A|-5555-5555-566-5555-5555-566| x1
E|----------------------------|

1:25 - 1:30
G|-------------------------|
D|-------------------------|
A|-5--3--5--3-356-5555-556-| x1
E|-------------------------|

1:48 - 2:06
G|-------------------|
D|-------------------|
A|-3-3--5-5--7-7-7-7-| x3
E|-------------------|

2:06 - 2:12
G|----------------------------|
D|----------------------------|
A|-33333333-55555555-7777-777-| x1
E|----------------------------|

2:14 - 2:28
G|------------------------| x2
D|------------------------|
A|------------------------|
E|-0--3-5-357--0--3-5-320-|

2:28 - 2:34
G|----------------------------|
D|----------------------------|
A|-5555-5555-566-5555-5555-566| x1
E|----------------------------|

2:35 - 2:40
G|-------------------------|
D|-------------------------|
A|-5--3--5--3-356-5555-556-| x1
E|-------------------------|

2:41 - 3:00
G|-------------------|
D|-------------------|
A|-3-3--5-5--7-7-7-7-| x3
E|-------------------|

3:00 - 3:03
G|-----------|
D|-----------|
A|-3333-5555-| x1
E|-----------|

3:03 - 3:43
G|----------|
D|----------|
A|-7777-755-| x20 (till end of song)
E|----------|

| /  slide up
| \  slide down
| h  hammer-on
| p  pull-off
| ~  vibrato
| +  harmonic
| x  Mute note
===============================================================================
comments
We did not receive enough feedback on this tab! Please rate:
print report bad tab
1 2 3 4 5
I want to post or [tab]
guest
You may want to rate the tab now too:
select rating
Please do not post tabs as comments. Select "correction" instead!