Oops, an error
Loading. Please wait.

Repo The Genetic Opera - Legal Assassin bass

version 1
version 1

Whole song

5,628 views 3 this week
2 commentsread comments
1 2 3 4 5
1 last vote to show rating
add to favorites
×
Save as Personal and add changes to this tab that will be seen only by you. Learn more ›
×
You can save this tab as Personal to edit and correct it or add notes. All changes will be seen only by you. Learn more »
launch autoscroll
font size
0
reset
guitar tuner
edit
Autoscroll
slow
fast
+/-
esc
set tempo
stop
Author
Song Name: Legal Assassin
Artist: Repo! The Genetic Opera

Tuning: Standard


INTRO

G|------------------------------------------|
D|------------------------------------------|
A|-------------5-5-5------------------------|
E|-0-----0-------------3-----5-----3-5-7----|

|------------------------------------------|
|------------------------------------------|
|-------------5-5-5------------------------|
|-0-----0-------------3-----5-----3-2-0----|

|------------------------------------------|
|------------------------------------------|
|-------------5-5-5------------------------|
|-0-----0-------------3-----5-----3-5-7----|

|------------------------------------------|
|------------------------------------------|
|-------------5-5-5------------------------|
|-0-----0-------------3-----5-----3-2-0----|


VERSE A

|------------------------------------------|
|------------------------------------------|
|------------------------------------------|
|(0)-----------------3-----5-----3-5-7-----|

|------------------------------------------|
|------------------------------------------|
|------------------------------------------|
|-0------------------3-----5-----3-2-0-----|

|------------------------------------------|
|------------------------------------------|
|------------------------------------------|
|(0)-----------------3-----5-----3-5-7-----|

|------------------------------------------|
|------------------------------------------|
|------------------------------------------|
|-0------------------3-----5-----3-2-0-----|


POST-VERSE A

|----------------------------------|
|----------------------------------|
|-5-5-5-5-----5-5-5-5-----6-6-6-6--|
|----------------------------------|

|----------------------------------|
|----------------------------------|
|-5-5-5-5-----5-5-5-5-----6-6-6----|
|----------------------------------|


BREAK


VERSE A


POST-VERSE A


POST-VERSE B

|----------------------------------|
|----------------------------------|
|-5-5-5-5-----5-5-5-5-----6-6-6-6--|
|----------------------------------|

|----------------------------------|
|----------------------------------|
|-5-5-5-5-----5-5-5-5-----6-6-6-6--|
|----------------------------------|

|----------------------------------|
|----------------------------------|
|-5-----3-----5-----6-----5---3----|
|----------------------------------|

|----------------------------------|
|----------------------------------|
|-5-5-5-5-----5-5-5-5-----6-6-6----|
|----------------------------------|


PRE-CHORUS

|----------------------------------|
|----------------------------------|
|----------------------------------|
|----------------------------------| x4


CHORUS

|------------------|------------------|
|------------------|------------------|
|-3-------5--------|-7----------------|
|------------------|------------------| x3

|----------------------------------|
|----------------------------------|
|-3---3---3---3---5---5---5---5----|
|----------------------------------|


CHORUS END

|----------------------|
|----------------------|
|----------------------|
|-0-0-0-0-----0-0-0----|


BREAK


VERSE B

|--------------------------------------|
|--------------------------------------|
|-----------7-7------------------------|
|-0-0-0-0---------3-----5-----3-5-7----|

|--------------------------------------|
|--------------------------------------|
|-----------7-7------------------------|
|-0-0-0-0---------3-----5-----3-2-0----|

|--------------------------------------|
|--------------------------------------|
|-----------7-7------------------------|
|-0-0-0-0---------3-----5-----3-5-7----|

|--------------------------------------|
|--------------------------------------|
|-----------7-7------------------------|
|-0-0-0-0---------3-----5-----3-2-0----|


POST-VERSE B


CHORUS


SONG END

|----------------------|
|----------------------|
|----------------------|
|-0-0-0-0-0-0-1-1-1-1--| x20

            
            
Suggest correction
Creating personal tab
Creating personal tab
You can edit any tab online and save it as your Personal.

You can edit, replace or remove any tab part or add personal notes – all changes will be seen only by you.

Personal tabs can be accessed anytime from any device, even offline.
Learn more »
Give kudos to tab author, rate the tab!
1 2 3 4 5
comments
print report bad tab
2 comments total.
+1 reply
tenfold 42 Feb 22, 2009 08:00 PM

Awesome. Helped me find out the guitar part too. Thanks. Got any more Repo tabs? :D

0 reply
liposuctionband 60 Dec 03, 2009 12:59 PM

Is this slapped?

guest
You may want to rate the tab now too:
select rating
Wanna post a correction for this tab? Suggest correction