Oops, an error
Loading. Please wait.

Requiem For A Dream Theme ukulele

version 1
version 1

Whole song

Interactive

1,330 views 57 this week
no commentswrite comment
1 2 3 4 5
2 more votes to show rating
add to favorites
×
Save as Personal and add changes to this tab that will be seen only by you. Learn more ›
×
You can save this tab as Personal to edit and correct it or add notes. All changes will be seen only by you. Learn more »
launch autoscroll
font size
0
reset
transpose
0
reset
display chords
guitar tuner
edit
Autoscroll
slow
fast
+/-
esc
set tempo
stop
Author
Strumming
There is no strumming pattern for this song yet. and get +5 IQ
This song might be a little bit funky because it is almost all picking and not strumming, and has a bass part.
However, I also recommend trying playing both the lead and bass part simultaneously, for those who are
looking to impress their friends or have none.

[PART 1]

LEAD

A|--1--0--------1--0--------1--0--------3--1--0--1--|
E|o-------3-----------3-----------3----------------o|
C|o----------2-----------2-----------2-------------o|
G|--------------------------------------------------|


BASS (This also for ukulele, just a different part).

A|--------------------------------------------------|
E|o-3--3--3--3--------------3--3--3--3-------------o|
C|o-------------3--3--2--2--------------3--3--2--2-o|
G|--------------------------------------------------|

[PART 2]

LEAD

A|1---1-1---1-1-1-1-1-1-1-0---1-0-1-0---1-0-1-0-1-0-1-0-1-0-1-0|
E|-3---3-3---3-3-3-3-3-3---------------------------------------| All of the parts are actually
C|-------------------------------------------------------------| the same length as all
G|-------------------------------------------------------------| of the other ones.


BASS

A|----------------------------------------------|
E|3--3--3--3--5--5--6--6--3--3--3--3------------|
C|------------------------------------3--3--2--2|
G|----------------------------------------------|

[PART 3]

LEAD

A|--1-1-0-0---1-1-1-0-0-0---1-1-1-0-0-0-----------0-0-0-0-1-1-1-1-1--|
E|o---------3-------------3-------------3---3-3-3-------------------o| The notes in parenthesis are
C|o--------(7)-----------(7)-----------(7)--------------------------o| optional, but make sure to let
G|-------------------------------------------------------------------| them ring.

                                           You would go back to part 1, and
BASS                                       after doing just the first part, finish with plucking
                                                  the E string on the third fret for both people.
A|--1----1----1----1----1----1----1----1----1----1--|
E|o-3----3----3----3----3----3----3----3----3----3-o| Here comes the only strumming part...
C|o-2----2----2----2----2----2----3----3----2----2-o| Sorry that I don't know the chords' names.
G|--0----0----0----0----0----0----0----0----0----0--|

I did not come up with this, so credits goes to the person who came up with this.
Suggest correction
Creating personal tab
Creating personal tab
You can edit any tab online and save it as your Personal.

You can edit, replace or remove any tab part or add personal notes – all changes will be seen only by you.

Personal tabs can be accessed anytime from any device, even offline.
Learn more »
Give kudos to tab author, rate the tab!
1 2 3 4 5
comments
print report bad tab
guest
You may want to rate the tab now too:
select rating
Wanna post a correction for this tab? Suggest correction