Oops, an error
Loading. Please wait.

Rizzoli And Isles Theme Tab

1,500 views 3 this week
no commentswrite comment
1 2 3 4 5
3 more votes to show rating
add to favorites
launch autoscroll
font size
0
reset
how to read this tab
guitar tuner
Autoscroll
slow
fast
+/-
esc
set tempo
stop
Help us to improve Ultimate-Guitar.com Take our survey!
×
Author
Hope you enjoy it .. Theme song from the TV Show Rizzoli & Isles.

E-----------------------------------------------------------|
B-----------------------------------------------------------|
G---------------------------------------------2-4-2-0-2-0---|
D-------0-0-0---2-3---2-2-2---3-5--3-3-3---5----------------|
A---0h2-----------------------------------------------------|
E-----------------------------------------------------------|
 
E-----------------------------------------------------------|
B-----------------------------------------------------------|
G------------------------------4-2-0-2-0--------------------|
D----0-0-0---2-3--2-2-2---3-5-------------4-5-4---0-2-------|
A--2--------------------------------------------------------|
E-----------------------------------------------------------|

E-----------------------------------------------------------|
B------------------------------5-6-8~~~---------------------|
G--7-5-7---7-0-4-2---4-5-7---7---------7--7-0-4-2----4-5-7--|
D-----------------------------------------------------------|
A-----------------------------------------------------------|
E-----------------------------------------------------------|

E-----------------------------------------------------------|
B---------------------------------5-6-8-6---5-6-5-----------|
G--5-4-5-4---2-4-2--0-2---4-5-7--7------------------7-9-7---|
D-----------------------------------------------------------|
A-----------------------------------------------------------|
E-----------------------------------------------------------|

E-------------------|
B-------------------|
G---5-9-7---5-7~~---|
D-------------------|
A-------------------|
E-------------------|

Tabbed by Mariann26
Suggest correction
Give kudos to tab author, rate the tab!
1 2 3 4 5
comments
print report bad tab
guest
You may want to rate the tab now too:
select rating
Wanna post a correction for this tab? Suggest correction