Oops, an error
Loading. Please wait.

Rock On - Yeh Tumhari Meri Baatein Chords

26,343 views 69 this week
2 commentsread comments
1 2 3 4 5
accurate
x 4
add to favorites
launch autoscroll
font size
0
reset
transpose
0
reset
display chords
guitar tuner
Autoscroll
slow
fast
+/-
esc
set tempo
stop
Help us to improve Ultimate-Guitar.com Take our survey!
×
Yeh Tumhaari Meri Baatein
From the hindi movie Rock on!!


By Sanjeev George and Thomas George
Contact at SanjeevGeorge123@yahoo.co.in


This riff is played throughout the song
e|-------1p0-----------------------------|
B|-----------3p1---3---1---3-------------|
G|-----0---------0-----------------------|
D|---------------------------------------|
A|---3---------------3---3---------------|
E|---------------------------------------|

Verse: play the riff

Riff
ye tumhari meri baatein
hamesha yun hi chalti rahe
ye hamari mulakaate
hamesha yun hi chalti rahe
G             F           Riff
beete yun hi apne saare din raat
  G            F             Riff
baaton se nikalti rahe nayi baat
Riff
phir wahi baatein leke
geet koi hum likhe
jo dil ko haan
sab ke dil ko chhoo le
baatein suron mein
yun hi pighalti rahe
  G          F
baatein geeton mein
Riff
yun hi dhalti rahe
G            F    
geeton mein ye haan
Riff
humko khushiyon se hum saja de
jo sune kahe wo hum se gaao na

ye tumhari meri baatein
hamesha yun hi chalti rahe
ye hamari mulakaate
hamesha yun hi chalti rahe
  G            F              Riff
beete yun hi apne saare din raat
 G             F              Riff
baaton se nikalti rahe nayi baat
phir wahi baatein
leke geet koi hum likhe
jo dil ko haan
sab ke dil ko chhoo le
baatein suron mein
yun hi pighalti rahe
baatein geeton mein
yun hi dhalti rahe
Bridge (OOoo.oooooo) Bb  Am  C  Am  F#  Am (All bar chords)

Riff till the end

In the end ,add this
e|----1-3---1--------------|
B|--3-----3---3------------|
G|-------------------------|
D|-------------------------|
A|-------------------------|
E|-------------------------|

Suggest correction
comments
print report bad tab
2 comments total.
0 reply
Moksh 10 wrote on September 19 2009, 03:07 am

great man...
however i've also define intro riff...but that was in another scale..
can you please send me some guitar tricks when one'll performed at stage....
i'll b thankfull 2 u for this..

0 reply
sintrackk550 10 wrote on November 6 2015, 12:40 am

I appreciate your tabs but riff were not perfect last two notes are wrong
Try this
e-----1p0------------1----3--
B--------3p1----3------------
G---0---------0--------------
D----------------------------
A-3---------------3----3-----
E----------------------------

guest
You may want to rate the tab now too:
select rating
Wanna post a correction for this tab? Suggest correction