Oops, an error
Loading. Please wait.

Schindlers List Theme Bass Tab

version 1
version 1

Whole song

Interactive

1,389 views 3 this week
no commentswrite comment
1 2 3 4 5
please rate
add to favorites
launch autoscroll
font size
0
reset
guitar tuner
Tab Pro tools
  • play this tab
  • loop segment
  • change instrument
  • show fretboard
  • metronome
×
Best way to learn
"Schindlers List Theme"
Autoscroll
slow
fast
+/-
esc
set tempo
stop
Contributor
Difficulty
intermediate
Schindlers List Theme for Bass
Originally composed by John Williams

Tempo = 75    |   4/4    |    Standard Tuning  

"h"  = Hammer on


Part 1:

  [1  [2  [3   [4
G|9---9---10-9-7-- -|5-2-9 -7-9-10-----|9---9---12-10-9-7-|- -----7-10-9-7-- -|
D|--7---7-- -----10-|0---- ------ -9---|--7---7-0 -- -----|- ---9---- -----10-|
A|0-------- ------ -|----10------ -----|0-------- -- -----|10-8------ ---8-- -|
E|--------8 ------ -|----- -7-8-- -0---|--------- -- -----|- ---7---8 ------ -|


G|7---7---9-7-5-7-|9---------------|7---7---9-7-5-4-|------------4---|
D|------------0---|----7---6---7---|------------0---|7---0---9--(6)--|
A|--8---8---------|--------------7-|--8---8---------|0---------------|
E|7-------0-----0-|8---------------|7-------0-------|--------7---0---|


G|5---5---9-7-5-4-|2---5-9-14-------|
D|0-7---7---------|--2-----14-------|
A|----------------|0-------0 -------|
E|--------0-------|--------- -------|



Part 2:

  [1       [2        [3      [4
G|----9 -7-10---9 ---4---4-5-7-------|----5-7-4---2-1-4---2-------2---|
D|----10---- ---10-------0-------0---|----0-------0-------2-------2---|
A|----- ---- ---- ---0---------------|0---------------0---------------|
E|0---- ---- ---- -------------------|--------------------------------|


G|----9 -7-12---10---------5-7---7---|----5-7-8---8-12-14---16-17-20-------|
D|----10---12---- ---9---0-------0---|--------------- -12---- -- (15)------|
A|0---- ---- ---- ---0---------------|--------------- -- ---- -- -18-------|
E|----- ---- ---- -------------------|7-------------- -- ---- -- -- -------|



-->Repeat Part 1 and 2<--



Part 3:

  [1   [2   [3   [4 
G|9 ---9 ---10-9-5---|5---5-7-9-7-7---|9---9---12-10-9 -7-|
D|12-7-10-7-10-----0-|--0----(0)--9---|--7---7-0 -- -- ---|
A|0 ---- ---0 -------|------8---------|0-----0-- -0 -10-8-|
E|- ---- ---- ---0---|0---3---8-------|--------13-- -- ---|

                                                             
G|0---4-7-10-9 -7-5-|7---7---9-7-5-7-|9 -------1-------|7---7---9-7-5-4-|       
D|--3------ -- -----|--0---0-----0---|10---7---0-3-2-2-|7-3-7-3-7---0---| 
A|----2-8-- -10-8-7-|----------------|0 ----------(3)2-|0-----2-0---0---|          
E|3-------8 -- -----|7-------0-------|- -----------4---|----------------| 
      
  [1      [2       [3      [4       [1  [2  [3  [4
G|2-------2h5-9h10-4-------1-------|5---5---9-7-5-4-| 0-------10---9---|
D|----2h3-------- -0-------2-------|--0---0-----0---|(7)3-2-0-0 ---0---|
A|--3------------ -0---------------|----------------| 0---2---0 -------|
E|1-------------- ---------0-------|0-------7-------| --------- ---0---|


G|5------ -9-14-17-- -|17---------------|
D|7-----10-7-10-14-12-|19---------------|
A|0---3-7 ---- -- -- -|0 ---------------|
E|--0---- ---- -- -- -|0 ---------------|
comments
We did not receive enough feedback on this tab! Please rate:
print report bad tab
1 2 3 4 5
I want to post or [tab]
guest
You may want to rate the tab now too:
select rating
Please do not post tabs as comments. Select "correction" instead!