Oops, an error
Loading. Please wait.

Sherlock - The Game Is On Ukulele

967 views 33 this week
no commentswrite comment
1 2 3 4 5
x 5
add to favorites
launch autoscroll
font size
0
reset
transpose
0
reset
display chords
guitar tuner
×
Best way to learn
"Sherlock - The Game Is On"
Autoscroll
slow
fast
+/-
esc
set tempo
stop
Author
Difficulty
[Intro]

A|-----------------------------------------------------10-----------------|
E|-----3--3--2-3-4--3--1------1-------------------------------------------|
C|--0---------------------------------------------------------------------|
G|-------------------------5-------5--5-4-5-7--5-8-5-5---5--5-7-8-7-5-10--|

A|---3-5-6-8-5-3-5--------------------------------------------------------|
E|------------------------------------------------------------------------|
C|------------------------------------------------------------------------|
G|-5---------------5------------------------------------------------------|
Suggest correction
comments
print report bad tab
guest
You may want to rate the tab now too:
select rating
Wanna post a correction for this tab? Suggest correction