Oops, an error
Loading. Please wait.

Sherlock Bbc Theme tab

version 2
version 2

Whole song

Interactive

151,581 views 366 this week
12 commentsread comments
1 2 3 4 5
x 118
add to favorites
×
Save as Personal and add changes to this tab that will be seen only by you. Learn more ›
×
You can save this tab as Personal to edit and correct it or add notes. All changes will be seen only by you. Learn more »
launch autoscroll
font size
0
reset
how to read this tab
guitar tuner
edit
Autoscroll
slow
fast
+/-
esc
set tempo
stop
Author
Difficulty
BBC Sherlock soundtrack: David Arnold and Michael Price

This is the distinctive melody used throughout the soundtrack to the BBC drama series Sherlock.

Standard Tuning

E|--------------------------------------------------------------------------|
B|------------------------------------------8-------------6-----------------|
G|-----------------5-------5-5-4h5h7-5-8------5-5-7-8-7-5---5-----5-7-8-----|
D|---5-5-4h5h6-5-3-------3--------------------------------------------------|
A|-3------------------------------------------------------------------------|
E|--------------------------------------------------------------------------|

E|-------------------------------------------------------------------------|
B|---6---------------------------------------------------------------------|
G|-8---7--7-8-5--5-7-4--1-0-5----------------------------------------------|
D|-------------------------------------------------------------------------|
A|-------------------------------------------------------------------------|
E|-------------------------------------------------------------------------|



************************************

| h  Hammer-on

************************************
Suggest correction
Creating personal tab
Creating personal tab
You can edit any tab online and save it as your Personal.

You can edit, replace or remove any tab part or add personal notes – all changes will be seen only by you.

Personal tabs can be accessed anytime from any device, even offline.
Learn more »
comments
print report bad tab
12 comments total. Showing first comments.
+2 reply
ThatAntisocialA 10 May 19, 2013 09:35 AM

I love you for posting this.

+10 reply
kionsu 85 Jun 17, 2013 08:12 PM

i feel like it was missing a little something so i found that it sounded cooler with this instead
E|------------------------------------------------------------------------------|
B|------------------------------------------8--------------6--------------------|
G|-----------------5-------5-5-4h5h7-5-8------5-5-7-8-7h8h7-5---5-----5-7-8-----|
D|---5-5-4h5h6-5-3-------3------------------------------------------------------|
A|-3----------------------------------------------------------------------------|
E|------------------------------------------------------------------------------|
the rest of the tab though is absolutely phenomenal! thanks mate! cheers

0 reply
jcadigann 10 Aug 19, 2013 12:51 PM

Amazing! Absolutely phenomenal.

guest
You may want to rate the tab now too:
select rating
Wanna post a correction for this tab? Suggest correction