Oops, an error
Loading. Please wait.

Sherlock Holmes - Discombobulate Tab

version 1
version 1

Whole song

Interactive

48,650 views 123 this week
no commentswrite comment
1 2 3 4 5
x 11
add to favorites
launch autoscroll
font size
0
reset
how to read this tab
guitar tuner
Autoscroll
slow
fast
+/-
esc
set tempo
stop
Help us to improve Ultimate-Guitar.com Take our survey!
×
Author
Tuning
C G C F A D
Song: Discombobulate
Composer: Hans Zimmer
Soundtrack: Sherlock Holmes
Tuning: Drop C

I tabbed out the lead melody and core back-up, since there’s a lot of things going on I 
hear it all. But enjoy anyway!...

[Intro]

D|-7-------7-----6-7~---------------------------------------------8-|
A|------------------------------------------------------------------|
F|------------------------------------------------------------------|
C|------------------------------------------------------------------|
G|------------------------------------------------------------------|
C|------------------------------------------------------------------|
|
D|------------------------------------------------------------------|
A|------------------------------------------------------------------|
F|---------4---------------4----------------------------------------|
C|---------4---------------4----------------------------------------|
G|------------------------------------------------------------------|
C|-2---------------2------------------------------------------------|
|
D|-----------------------------------------7b~-----/-------/--------|
A|------------------------------------------------------------------|
F|-----------------------------------------4b~----------------------|
C|------------------------------------------------------------------|
G|------------------------------------------------------------------|
C|------------------------------------------------------------------|



D|-9-------9-------9~--------------------------------------------10-|
A|---------------8--------------------------------------------------|
F|------------------------------------------------------------------|
C|------------------------------------------------------------------|
G|------------------------------------------------------------------|
C|------------------------------------------------------------------|
|
D|------------------------------------------------------------------|
A|------------------------------------------------------------------|
F|---------4---------------4----------------------------------------|
C|---------4---------------4----------------------------------------|
G|------------------------------------------------------------------|
C|-2---------------2------------------------------------------------|
|
D|/9~--------------------------------------9t-----------------------|
A|------------------------------------------------------------------|
F|/6~----------------------------------------------trill slows...---|
C|------------------------------------------------------------------|
G|------------------------------------------------------------------|
C|------------------------------------------------------------------|



D|-7-------7-----6-7~-----------------------------------------------|
A|------------------------------------------------------------------|
F|------------------------------------------------------------------|
C|------------------------------------------------------------------|
G|------------------------------------------------------------------|
C|------------------------------------------------------------------|
|
D|------------------------------------------------------------------|
A|------------------------------------------------------------------|
F|---------4---------------4----------------------------------------|
C|---------4---------------4----------------------------------------|
G|------------------------------------------------------------------|
C|-2---------------2------------------------------------------------|
|
D|-----------------------------------------7b~----------------------|
A|------------------------------------------------------------------|
F|-----------------------------------------4b~----------------------|
C|------------------------------------------------------------------|
G|------------------------------------------------------------------|
C|------------------------------------------------------------------|


[Kick]

D|------------------------------------------------------------------|
A|------------------------------------------------------------------|
F|-----4-------4-------4-------4------------------------------------|
C|-----4-------4-------4-------4------------------------------------|
G|-----2-------2-------2-------2------------------------------------|
C|-2-------2-------2-------2----------------------------------------|


[Section 1]

D|------------------------------------------------------------------|
A|------------------------------------------------------------------|
F|-4-4-4-3-4-4-4-3-2-2-2-1-2-2-2-3-4-4-4-3-4-4-4-3-2-2-2-1-2-2-2-3--|
C|------------------------------------------------------------------|
G|------------------------------------------------------------------|
C|------------------------------------------------------------------|
|
D|------------------------------------------------------------------|
A|------------------------------------------------------------------|
F|------------------------------------------------------------------|
C|------------------------------------------------------------------|
G|-2-------2-------0-------0---0-1-2-------2-------0----------------|
C|---------------------------------------------------------7-7-5-4--|


D|-7---7-6-7---7-8-9---9---9---9-10-7---7-6-7---7---7~--------------|
A|-----------------------8------------------------8-----------------|
F|------------------------------------------------------------------|
C|------------------------------------------------------------------|
G|------------------------------------------------------------------|
C|------------------------------------------------------------------|
|
D|------------------------------------------------------------------|
A|------------------------------------------------------------------|
F|-4-4-4-3-4-4-4-5-6-6-6---6-6-6-7-4-4-4-3-4-4-4-0-4~---------------|
C|-----------------------5------------------------------------------|
G|------------------------------------------------------------------|
C|------------------------------------------------------------------|
|
|------------------------------------------------------------------|
|------------------------------------------------------------------|
|-4-4-4p3-4-4-4p3-4-4-4p3-4-4-4p3-4-4-4p3-4-4-4p3-4p3-4p3-2-2-0----|
|---------------------------------------------------------------4--|
|------------------------------------------------------------------|
|------------------------------------------------------------------|
| - -     - -     - -     - -     - -     - -
|
D|------------------------------------------------------------------|
A|------------------------------------------------------------------|
F|------------------------------------------------------------------|
C|------------------------------------------------------------------|
G|-2-------2-------0-------0---0-1-2-------2-------0----------------|
C|-2-------2-------2-------2-------2-------2-------2-------7-7-5-4--|


D|----------------------------------|
A|----------------------------------|
F|-44444-----------44444------------|
C|----------------------------------|
G|----------------------------------|
C|----------------------------------|
|
D|----------------------------------|
A|----------------------------------|
F|-4-4-4p3-4-4-4p3-4-4-4p3-4-4-4p3--|
C|----------------------------------|
G|----------------------------------|
C|----------------------------------|
|
D|----------------------------------|
A|----------------------------------|
F|----------------------------------|
C|----------------------------------|
G|-----2-------2-------2-------2----|
C|-----2-------2-------2-------2----|


D|-7---7-6-7---7-8-9---9---9---9-10-7---7-6-7---7-10-7~-------------|
A|-----------------------8------------------------------------------|
F|------------------------------------------------------------------|
C|------------------------------------------------------------------|
G|------------------------------------------------------------------|
C|------------------------------------------------------------------|
|
D|------------------------------------------------------------------|
A|------------------------------------------------------------------|
F|------------------------------------------------------------------|
C|------------------------------------------------------------------|
G|-7-5-----7-5-----7-5-----7-5------7-4-----7-5-----7-5-7-5-7-8-7-5-|
C|------------------------------------------------------------------|
|
D|------------------------------------------------------------------|
A|------------------------------------------------------------------|
F|------------------------------------------------------------------|
C|------------------------------------------------------------------|
G|------------------------------------------------------------------|
C|-2---------------2----------------0----------------2--------------|


D|----------------------------------|
A|----------------------------------|
F|-44444-----------44444------------|
C|----------------------------------|
G|----------------------------------|
C|----------------------------------|
|
D|----------------------------------|
A|----------------------------------|
F|-4-4-4p3-4-4-4p3-4-4-4p3-4-4-4p3--|
C|----------------------------------|
G|----------------------------------|
C|----------------------------------|
|
D|----------------------------------|
A|----------------------------------|
F|----------------------------------|
C|----------------------------------|
G|-----2-------2-------2-------2----|
C|-----2-------2-------2-------2----|


D|-6p5~----------------------------3-2~-----------------------------|
A|------------------------------------------------------------------|
F|------------------------------------------------------------------|
C|------------------------------------------------------------------|
G|------------------------------------------------------------------|
C|------------------------------------------------------------------|
|
D|------------------------------------------------------------------|
A|------------------------------------------------------------------|
F|-5-2-5-4-5-2-5-4-5-2-5-4-5-2-5-4-3-2-3---3-2-3---3-2-3---3-2-3----|
C|---------------------------------------4-------4-------4-------4--|
G|------------------------------------------------------------------|
C|------------------------------------------------------------------|
|
D|------------------------------------------------------------------|
A|------------------------------------------------------------------|
F|------------------------------------------------------------------|
C|------------------------------------------------------------------|
G|------------------------------------------------------------------|
C|-2-------2-------2-------2-------4-------4-------4-------4--------|


D|-1p0~-----------------------------|
A|----------------------------------|
F|----------------------------------|
C|----------------------------------|
G|----------------------------------|
C|----------------------------------|
|
D|----------------------------------|
A|----------------------------------|
F|-2-1-2---2-1-2---2-1-2---2-2-0----|
C|-------2-------2-------2-------4--|
G|----------------------------------|
C|----------------------------------|
|
D|----------------------------------|
A|----------------------------------|
F|----------------------------------|
C|----------------------------------|
G|----------------------------------|
C|-2-------2-------2-------2--------|


D|-6h7---7---6h7---7---6p5---5---4h5---5---6h7---7---6h7---7---6p5~------|
A|-----------------------------------------------------------------------|
F|-----------------------------------------------------------------------|
C|-----------------------------------------------------------------------|
G|-----------------------------------------------------------------------|
C|-----------------------------------------------------------------------|
|
D|---------------------------------------------------------------------------|
A|---------------------------------------------------------------------------|
F|------/4p0------/4p0------/2--------/2--------/4p0------/4p0--4p2-2p0------|
C|----------------------------------------------------------------------5p4--|
G|---------------------------------------------------------------------------|
C|---------------------------------------------------------------------------|
|
D|-----------------------------------------------------------------------|
A|-----------------------------------------------------------------------|
F|-----------------------------------------------------------------------|
C|-----------------------------------------------------------------------|
G|-----------------------------------------------------------------------|
C|-2---------2---------2---------2---------2---------2---------2---------|


D|-6h7---7---6h7---7---6p5---5---4h5---5---5h3---3---2h3---3---2p0~------|
A|-----------------------------------------------------------------------|
F|-----------------------------------------------------------------------|
C|-----------------------------------------------------------------------|
G|-----------------------------------------------------------------------|
C|-----------------------------------------------------------------------|
|
D|-----------------------------------------------------------------------------|
A|-------------------------------------------------------------------------1p0-|
F|------/4p0------/4p0------/2--------/2---------------------------------------|
C|-----------------------------------------------5p4-------5p4-/4p2-/2p0-0-----|
G|-----------------------------------------------------------------------------|
C|-----------------------------------------------------------------------------|
|
D|-----------------------------------------------------------------------|
A|-----------------------------------------------------------------------|
F|-----------------------------------------------------------------------|
C|-----------------------------------------------------------------------|
G|-----------------------------------------------------------------------|
C|-2---------2---------2---------2---------2---------2---------2---------|


D|-----19------19------19------19--| some type of bell…
A|-----12------12------12------12--|
F|-----4-------4-------4-------4---|
C|-----4-------4-------4-------4---|
G|---------------------------------|
C|-2-------2-------2-------2-------|


[Section 2]

 Two violins with a banjo on the higher octave (staccato)
D|-5---5-4-5---5-6-7---7---7---7-8-5---5-4-5---5---5~--------------|
A|-x---x-x-x---x-x-x---x-6-x---x-x-x---x-x-x---x-6-x---------------|
F|-2---2-1-2---2-3-4---4-x-4---4-5-2---2-1-2---2-x-2~--------------|
C|-----------------------3-----------------------3-----------------|
G|-----------------------------------------------------------------|
C|-----------------------------------------------------------------|
|
D|-----------------------------------------------------------------|
A|-----3-------3-------3---------------3-------3-------3-----------|
F|-----------------------------------------------------------------|
C|-----0-------0-------0---------------0-------0-------0-----------|
G|-----------------------------0-------------------------------0---|
C|-0-------0-------0-------0---2---0-------0-------0-------0---2---| it really goes down 
a low g, but I added the fifth so it sounds lower without one retuning.


D|-5---5-4-5---5-6-7---7---7---7-8-5---5-4-5---5-8-5~--------------|
A|-x---x-x-x---x-x-x---x-6-x---x-x-x---x-x-x---x-x-x---------------|
F|-2---2-1-2---2-3-4---4-x-4---4-5-2---2-1-2---2-5-2~--------------|
C|-----------------------3-----------------------------------------|
G|-----------------------------------------------------------------|
C|-----------------------------------------------------------------|
|
D|-----------------------------------------------------------------|
A|-----3-------3-------8-------8-------3-------3-------8-------8---|
F|-----------------------------------------------------------------|
C|-----0-------0-------5-------5-------0-------0-------5-------5---|
G|---------0---------------5---------------0---------------5-------|
C|-0---------------5---------------0---------------5---------------|


D|---------|
A|-----3---|
F|-----x---|
C|-0---0---|
G|-x-------|
C|-0-------|


D|-12---12-11-12---12-11-10---10-9-10---10-11-12---12-11-12---12-11-10-------------------|
A|---------------------------------------------------------------------------------------|
F|---------------------------------------------------------------------------------------|
C|---------------------------------------------------------------------------------------|
G|---------------------------------------------------------------------------------------|
C|---------------------------------------------------------------------------------------|
|
D|---------------------------------------------------------------------------------------|
A|------10---------10---------7---------7----------8----------8-----------7---------7----|
F|------7----------7----------7---------7----------7----------7-----------7---------7----|
C|---------------------------------------------------------------------------------------|
G|---------------------------------------------------------------------------------------|
C|---------------------------------------------------------------------------------------|
|
D|---------------------------------------------------------------------------------------|
A|---------------------------------------------------------------------------------------|
F|---------------------------------------------------------------------------------------|
C|---------------------------------------------------------------------------------------|
G|-0----------0----------5---------5----------0----------0----------5----------5---------|
C|---------------------------------------------------------------------------------------|


D|-12---12-11-12---12-11-10---10-9-10---10-9-8---8-7-8---8-7-5--------------------|
A|--------------------------------------------------------------------------------|
F|--------------------------------------------------------------------------------|
C|--------------------------------------------------------------------------------|
G|--------------------------------------------------------------------------------|
C|--------------------------------------------------------------------------------|
|
D|----------------------------7---------7-----------------------------------------|
A|------10---------10----------------------------10------10------7-------7--------|
F|------7----------7----------7---------7--------7-------7-------7-------7--------|
C|--------------------------------------------------------------------------------|
G|--------------------------------------------------------------------------------|
C|--------------------------------------------------------------------------------|
|
D|--------------------------------------------------------------------------------|
A|--------------------------------------------------------------------------------|
F|--------------------------------------------------------------------------------|
C|--------------------------------------------------------------------------------|
G|-0----------0----------5---------5----------0-------0-------5-------5-----------|
C|--------------------------------------------------------------------------------|


[Re-entry]

D|-----7-------7---|
A|-----------------|
F|-----4-------4---|
C|-2---x---2---x---|
G|-x---2---x---2---|
C|-2-------2-------|


[Section 3]

 This part is repeated three times
D|-----------------------------------------------------------------|
A|-----------------------------------------------------------------|
F|-4-----3-4-----5-6-------6-----7-5-----4-5-----2-4-----3-4-------|
C|-----------------------7-----------------------------------------|
G|-----------------------------------------------------------------|
C|-----------------------------------------------------------------|

D|-----7-6-----7-6-----9-8-----9-8-----8-7-----8-7-----7-6-----7-6-|one part
A|-----------------------------------------------------------------|
F|-4-0-----4-0-----6-0-----6-0-----5-0-----5-0-----4-0-----2-2-0---|another part
C|---------------------------------------------------------------4-|
G|-----------------------------------------------------------------|
C|-----------------------------------------------------------------|
|
D|-----------------------------------------------------------------|
A|-----------------------------------------------------------------|
F|-----------------------------------------------------------------|
C|-----------------------------------------------------------------|
G|-----2-------2-------4-------4-------3-------3-------2---0-0-2---|two parts here
C|-2-------2-------2-------2-------2-------2-------2-------2---5-4-|as well…


 Lead 2nd time
D|------------------------------------------------------------------|
A|------------------------------------------------------------------|
F|-4-----3-4-----5-6-------6-----7-5-----4-5-----7-4-----3-4--------|
C|-----------------------7------------------------------------------|
G|------------------------------------------------------------------|
C|------------------------------------------------------------------|

 Lead 3rd time
D|------------------------------------------------------------------|
A|------------------------------------------------------------------|
F|-4-----3-4-----5-6-------6-----7-4-----3-4-----7-4~---------------|
C|-----------------------7------------------------------------------|
G|------------------------------------------------------------------|
C|------------------------------------------------------------------|

 Bass 3rd time
D|------------------------------------------------------------------|
A|------------------------------------------------------------------|
F|------------------------------------------------------------------|
C|---------------------5-------5-------5-------5--------------------|
G|-----2-------2-------4-------4-------3-------3--------------------|
C|-2-------2-------2-------2-------2-------2-------2----------------|


 Top set of notes is the bell.
D|-7p5-----------3p2---------5-7-8-|
A|---------------------------5-7-8-|
F|-4p2-----------------------------|
C|---------------5p4-------------4p|
G|---------------------------------|
C|---------------------------------|
|
D|---------------------------------|
A|---------------------------------|
F|---------------------------------|
C|-7-6-7-4-7-6-7-4-6-5-6-3-6-5-6-3-|
G|---------------------------------|
C|---------------------------------|


[Ending]

D|------------------------------------------------------------------|
A|------------------------------------------------------------------|
F|------------------------------------------------------------------|
C|-2~--------2-4-5-2~--------2-4-5-2~-------------2-4-5-2~----------|
G|------------------------------------------------------------------|
C|-2---------------2---------------2--------------------2-----------|
|
D|---------------------------------12-11-12-14-12~------------------|
A|-----------------5-4-5-7-5~---------------------------5-4-5-7-5~--|
F|------------------------------------------------------------------|
C|------------------------------------------------------------------|
G|------------------------------------------------------------------|
C|------------------------------------------------------------------|


D|-----14\-----14\-----14\-----14\----------------------------------|
A|-----12\-----12\-----12\-----12\----------------------------------|
F|-----11\-----11\-----11\-----11\--------4---4--3h4----------------|
C|-2-------2-------2-------2----------------------------------------|
G|-2-------2-------2-------2----------------------------------------|
C|-2-------2-------2-------2----------------------------------------|



************************************

| x  Dead note
| h  Hammer-on
| p  Pull-off
| t  Tapping
| /  Slide up
| \  Slide down
| ~  Vibrato 

************************************
Suggest correction
comments
print report bad tab
guest
You may want to rate the tab now too:
select rating
Wanna post a correction for this tab? Suggest correction