Oops, an error
Loading. Please wait.

Shigatsu Wa Kimi No Uso - Uso To Honto My Lie Duet Part 1 solo tab

173 views 3 this week
no commentswrite comment
1 2 3 4 5
3 more votes to show rating
add to favorites
×
Save as Personal and add changes to this tab that will be seen only by you. Learn more ›
×
You can save this tab as Personal to edit and correct it or add notes. All changes will be seen only by you. Learn more »
launch autoscroll
font size
0
reset
how to read this tab
guitar tuner
edit
Autoscroll
slow
fast
+/-
esc
set tempo
stop
Author
5
e|------------------1---0---------------0---1---3---1---0-------------------------------0---1---3--|
B|--------------------------3---1---3-----------------------3-----------1---3----------------------|
G|-------------------------------------------------------------------------------------------------|
D|-------------------------------------------------------------------------------------------------|
A|-------------------------------------------------------------------------------------------------|
E|-------------------------------------------------------------------------------------------------|

6
e|--3-----------------------7----------------------/7----------------------------------------------|
B|-------------------------------------------------------------------------------------------------|
G|-------------------------------------------------------------------------------------------------|
D|-------------------------------------------------------------------------------------------------|
A|-------------------------------------------------------------------------------------------------|
E|-------------------------------------------------------------------------------------------------|

7
e|------------------1---0---------------0---1---3---1---0---------------------------------------7--|
B|--------------------------3---1---3-----------------------3-----------1---3-----------1---3------|
G|-------------------------------------------------------------------------------------------------|
D|-------------------------------------------------------------------------------------------------|
A|-------------------------------------------------------------------------------------------------|
E|-------------------------------------------------------------------------------------------------|

8
e|--7---------------------10-----------------------/10---------------------/10--------------0---1--|
B|-------------------------------------------------------------------------------------------------|
G|-------------------------------------------------------------------------------------------------|
D|-------------------------------------------------------------------------------------------------|
A|-------------------------------------------------------------------------------------------------|
E|-------------------------------------------------------------------------------------------------|

9
e|--0-------0---0-------0---0-------0---0-------0---0-------0---0-------0---0------0---5---0-------|
B|------3-----------3-----------3-----------3-----------3-----------3-----------3--------------3---|
G|-------------------------------------------------------------------------------------------------|
D|-------------------------------------------------------------------------------------------------|
A|-------------------------------------------------------------------------------------------------|
E|-------------------------------------------------------------------------------------------------|

10
e|--0----------------------------------------------------------------------------------------------|
B|-------------------------0-----------------------/0----------------------/0----------------------|
G|-------------------------------------------------------------------------------------------------|
D|-------------------------------------------------------------------------------------------------|
A|-------------------------------------------------------------------------------------------------|
E|-------------------------------------------------------------------------------------------------|

11
e|----------0-------0---0-------0---0-------0---0------0---0-------0---0-------0---0------0---5----|
B|--------------3-----------3-----------3----------3-----------3-----------3----------3------------|
G|-------------------------------------------------------------------------------------------------|
D|-------------------------------------------------------------------------------------------------|
A|-------------------------------------------------------------------------------------------------|
E|-------------------------------------------------------------------------------------------------|

12
e|--10---------7---------/7----------------------|-5--5--3--1--0-------------0--1--3--3-----0--0--7--8----|
B|-----------------------------------------------|-----------------3-1-3----------------------------------|
G|-----------------------------------------------|--------------------------------------------------------|
D|-----------------------------------------------|--------------------------------------------------------|
A|-----------------------------------------------|--------------------------------------------------------|
E|-----------------------------------------------|--------------------------------------------------------|

14
e|--10--10--12--------10--10--12------------------0-------3-|--/3--0-------3--------7-----/7---|----8--/8-|
B|--------------10--8-------------10--8--8------------------|----------------------------------|----------|
G|----------------------------------------------------------|----------------------------------|----------|
D|----------------------------------------------------------|----------------------------------|----------|
A|----------------------------------------------------------|----------------------------------|----------|
E|----------------------------------------------------------|----------------------------------|----------|

17
e|------0-----------3--3---5--0------|--------------3--1----0-------3------|-----0--------0-3-7-8-7-3-0-3-|
B|--3-------1-3------------------3-1-|-3---3-1-3----------------1-------3--|-3------1-3------------------3|
G|-------2---------------------------|------------------------2------------|------2-----------------------|
D|-----------------------------------|-------------------------------------|------------------------------|
A|-----------------------------------|-------------------------------------|------------------------------|
E|-----------------------------------|-------------------------------------|------------------------------|

20
e|-------------------------------|----------------------------------------|-----0--------3--3--5--0-------|
B|--1--3--1--1---3-1-------------|----------------------------------------|-3-------1-3--------------3--1-|
G|-------------------------------|----------------------------------------|-------2-----------------------|
D|-------------------------------|----------------------------------------|-------------------------------|
A|-------------------------------|----------------------------------------|-------------------------------|
E|-------------------------------|----------------------------------------|-------------------------------|

23
e|-------------3---1--0------3--7|-7---8-----7---8-------10--8--7--3--0---|----3------5------7------8-----|
B|-3--3--1--3--------------1-----|-------8-5-------8-5--------------------|-------------------------------|
G|----------------------2--------|----------------------------------------|-------------------------------|
D|-------------------------------|----------------------------------------|-------------------------------|
A|-------------------------------|----------------------------------------|-------------------------------|
E|-------------------------------|----------------------------------------|-------------------------------|

26
e|-------8--------10--------10-------12-----------|--10--12---------10--12--------------------------------|
B|------------------------------------------------|---------10-13----------10-13---13---------------------|
G|------------------------------------------------|-------------------------------------------------------|
D|------------------------------------------------|-------------------------------------------------------|
A|------------------------------------------------|-------------------------------------------------------|
E|------------------------------------------------|-------------------------------------------------------|

28
e|-----10----12-------------10---12------------------------|---10-------8--------12-----------------------|
B|----------------10--13--------------10--13--13---12------|----------------------------------------------|
G|---------------------------------------------------------|----------------------------------------------|
D|---------------------------------------------------------|----------------------------------------------|
A|---------------------------------------------------------|----------------------------------------------|
E|---------------------------------------------------------|----------------------------------------------|
Suggest correction
Creating personal tab
Creating personal tab
You can edit any tab online and save it as your Personal.

You can edit, replace or remove any tab part or add personal notes – all changes will be seen only by you.

Personal tabs can be accessed anytime from any device, even offline.
Learn more »
Give kudos to tab author, rate the tab!
1 2 3 4 5
comments
print report bad tab
guest
You may want to rate the tab now too:
select rating
Wanna post a correction for this tab? Suggest correction