Oops, an error
Loading. Please wait.

Shigatsu Wa Kimi No Uso - Uso To Honto My Lie Duet Part 2 solo tab

68 views 1 this week
no commentswrite comment
1 2 3 4 5
3 more votes to show rating
add to favorites
×
Save as Personal and add changes to this tab that will be seen only by you. Learn more ›
×
You can save this tab as Personal to edit and correct it or add notes. All changes will be seen only by you. Learn more »
launch autoscroll
font size
0
reset
how to read this tab
guitar tuner
edit
Autoscroll
slow
fast
+/-
esc
set tempo
stop
Author
1
e|-------------------------------------------------------------------------------------------------|
B|-------------------------------------------------------------------------------------------------|
G|--------------0-----------------------0-----------------------0-----------------------0----------|
D|----------1-------1---------------1-------1---------------1-------1---------------1-------1------|
A|------3---------------3-------3---------------3-------3---------------3-------3---------------3--|
E|--4-----------------------4-----------------------4-----------------------4----------------------|

2
e|-------------------------------------------------------------------------------------------------|
B|-------------------------------------------------------------------------------------------------|
G|--------------0-----------------------0-----------------------0-----------------------0----------|
D|----------0-------0---------------0-------0---------------0-------0---------------0-------0------|
A|------1---------------1-------1---------------1-------1---------------1-------1---------------1--|
E|--3-----------------------3-----------------------3-----------------------3----------------------|

3
e|-------------------------------------------------------------------------------------------------|
B|-------------------------------------------------------------------------------------------------|
G|--------------0-----------------------0-----------------------0-----------------------0----------|
D|----------1-------1---------------1-------1---------------1-------1---------------1-------1------|
A|------3---------------3-------3---------------3-------3---------------3-------3---------------3--|
E|--4-----------------------4-----------------------4-----------------------4----------------------|

4
e|-------------------------------------------------------------------------------------------------|
B|-------------------------------------------------------------------------------------------------|
G|--------------0-----------------------0-----------------------0-----------------------0----------|
D|----------0-------0---------------0-------0---------------0-------0---------------0-------0------|
A|------1---------------1-------1---------------1-------1---------------1-------1---------------1--|
E|--3-----------------------3-----------------------3-----------------------3----------------------|

5
e|-------------------------------------------------------------------------------------------------|
B|-------------------------------------------------------------------------------------------------|
G|--------------0-----------------------0-----------------------0-----------------------0----------|
D|----------1-------1---------------1-------1---------------1-------1---------------1-------1------|
A|------3---------------3-------3---------------3-------3---------------3-------3---------------3--|
E|--4-----------------------4-----------------------4-----------------------4----------------------|

6
e|-------------------------------------------------------------------------------------------------|
B|-------------------------------------------------------------------------------------------------|
G|--------------0-----------------------0-----------------------0-----------------------0----------|
D|----------0-------0---------------0-------0---------------0-------0---------------0-------0------|
A|------1---------------1-------1---------------1-------1---------------1-------1---------------1--|
E|--3-----------------------3-----------------------3-----------------------3----------------------|

7
e|-------------------------------------------------------------------------------------------------|
B|-------------------------------------------------------------------------------------------------|
G|--------------0-----------------------0-----------------------0-----------------------0----------|
D|----------1-------1---------------1-------1---------------1-------1---------------1-------1------|
A|------3---------------3-------3---------------3-------3---------------3-------3---------------3--|
E|--4-----------------------4-----------------------4-----------------------4----------------------|

8
e|-------------------------------------------------------------------------------------------------|
B|-------------------------------------------------------------------------------------------------|
G|--------------0-----------------------0-----------------------0-----------------------0----------|
D|----------0-------0---------------0-------0---------------0-------0---------------0-------0------|
A|------1---------------1-------1---------------1-------1---------------1-------1---------------1--|
E|--3-----------------------3-----------------------3-----------------------3----------------------|

9
e|-------------------------------------------------------------------------------------------------|
B|-------------------------------------------------------------------------------------------------|
G|--------------0-----------------------0-----------------------0-----------------------0----------|
D|----------1-------1---------------1-------1---------------1-------1---------------1-------1------|
A|------3---------------3-------3---------------3-------3---------------3-------3---------------3--|
E|--4-----------------------4-----------------------4-----------------------4----------------------|

10
e|-------------------------------------------------------------------------------------------------|
B|-------------------------------------------------------------------------------------------------|
G|--------------0-----------------------0-----------------------0-----------------------0----------|
D|----------0-------0---------------0-------0---------------0-------0---------------0-------0------|
A|------1---------------1-------1---------------1-------1---------------1-------1---------------1--|
E|--3-----------------------3-----------------------3-----------------------3----------------------|

11
e|-------------------------------------------------------------------------------------------------|
B|-------------------------------------------------------------------------------------------------|
G|--------------0-----------------------0-----------------------0-----------------------0----------|
D|----------1-------1---------------1-------1---------------1-------1---------------1-------1------|
A|------3---------------3-------3---------------3-------3---------------3-------3---------------3--|
E|--4-----------------------4-----------------------4-----------------------4----------------------|

12
e|-----------------------------------------------|--------------------------------------------------------|
B|-----------------------------------------------|--------------------------------------------------------|
G|-------0-----------0-----------0-----------0---|--------------------------------------------------------|
D|-----0---0-------0---0-------0---0-------0---1-|-----------------1-----------------3--------0-----------|
A|---1-------1---1-------1---1-------1---1-------|-3---------------------------------1--------------------|
E|-3-----------3-----------3-----------3---------|-1---------------4--------------------------3-----------|

14
e|----------------------------------------------------------|----------------------------------|----------|
B|----------------------------------------------------------|------------------------------3---|-/3-------|
G|----------------------------------------------------------|--------------0--------3----------|----------|
D|--------------------1------------------3------------------|--0-------------------------------|----------|
A|--3------------------------------------1------------------|----------------------------------|----------|
E|--1-----------------4-------------------------------------|--3----------/3-------/3-----/3---|-/3-------|

17
e|-----------------------------------|-------------------------------------|------------------------------|
B|--4-------------------------8------|-------------------------------------|-4------------------------8---|
G|--5-------------------------8------|---------3--------------------0------|-5------------------------8---|
D|--5------------------3------8------|---------1-------3------------0------|-5------------------3-----8---|
A|--3---------6--------1------6------|-6---------------3-------------------|-3--------6---------1-----6---|
E|------------4----------------------|-4-------3-------1------------3------|----------4-------------------|

20
e|-------------------------------|----------------------------------------|-------------------------------|
B|-----------------4-------------|----------------------------------------|-4---------------------8-------|
G|-----------3-----5-------------|-------------------------------3--------|-5---------------3-----8-------|
D|-----------1-----5----1--3--1--|---1-------3--1--1-------3-----1--------|-5---------------1-----8-------|
A|--6--------------3----1-/1-/1--|----------------------------------------|-3---------4-----------6-------|
E|--4--------3-------------------|---1------/1-/1-/3------/3-----4--------|-----------6-------------------|

23
e|-------------------------------|----------------------------------------|-------------------------------|
B|-------------------------------|-4----------------------------8---------|-------------------------------|
G|----------3----------------0---|-5----------------------------8---------|------------------0------------|
D|----------1------3---------0---|-5---------------------3------8---------|-------------------------3-----|
A|-6---------------3-------------|-3---------6-----------1------6---------|----6------8------1-----/1-----|
E|-4--------3------1---------3---|-----------4----------------------------|----4-----/4-------------------|

26
e|------------------------------------------------|-------------------------------------------------------|
B|--------------------------1---------------------|-------------------------------------------------------|
G|-------1--------0------------------3------------|--1----------------------------------------------------|
D|--------------------------0--------0------------|--1-----------------------------1---0------------------|
A|-------3--------3-------------------------------|----------------------------------------1--------------|
E|------------------------------------------------|--4-----------------------------------------3---1---3--|

28
e|---------------------------------------------------------|----------------------------------------------|
B|---------------------------------------------------------|----------------------------------------------|
G|-----1----------------------------------0----------------|----------------------------------------------|
D|-----1-------------------------------------------3-------|---1--------0---------------------------------|
A|----------------------------------------3--------1-------|----------------------------------------------|
E|-----4---------------------------------------------------|---4--------3--------1------------------------|


************************************

| /  Slide up

************************************

            
            
Suggest correction
Creating personal tab
Creating personal tab
You can edit any tab online and save it as your Personal.

You can edit, replace or remove any tab part or add personal notes – all changes will be seen only by you.

Personal tabs can be accessed anytime from any device, even offline.
Learn more »
Give kudos to tab author, rate the tab!
1 2 3 4 5
comments
print report bad tab
guest
You may want to rate the tab now too:
select rating
Wanna post a correction for this tab? Suggest correction