Oops, an error
Loading. Please wait.

Sing Street - Beautiful Sea tab

4,462 views 45 this week
3 commentsread comments
1 2 3 4 5
x 7
add to favorites
×
Save as Personal and add changes to this tab that will be seen only by you. Learn more ›
×
You can save this tab as Personal to edit and correct it or add notes. All changes will be seen only by you. Learn more »
launch autoscroll
font size
0
reset
how to read this tab
guitar tuner
edit
Autoscroll
slow
fast
+/-
esc
set tempo
stop
About this tab version
Simple chords and layout with lyrics make it easy to read and play. Was this info helpful? Yes No
This is a tab for Beautiful Sea from the movie soundtrack of Sing Street. Strumming pattern for the chords is
not written down.
Strumming pattern is fast with lots of alternating. Try playing along to the song to find what's comfortable 
for you. 

Use this video for reference: https://www.youtube.com/watch?v=5LWgxkkAhx0
Tab was written using reference to the video

Capo 3

Lead Guitar [Intro] *Still with Capo on 3rd
e|---------0--------0--------0--------0--------------0--------0-----4--------2--------|
B|------0--------0--------4--------4-----4--------2--------2-----------2--------2-----|         
G|---1--------1--------4--------4-----------4--2--------2--------2--------2--------2--|
D|------------------------------------------------------------------------------------|
A|------------------------------------------------------------------------------------|
E|------------------------------------------------------------------------------------|


[Intro]

e|--0---------------0-------------0--------------------|
B|--0---------------0-------------0--------------------|          Repeated many times until
G|--1---------------4-------------2--------------------|              the lyrics start
D|--2---------------6-------------4--------------------|
A|--2---------------6-------------4--------------------|
E|--0---------------0-------------0--------------------|


[Verse 1]

e|--0--------------0-------------------------0---------------------------------------------|
B|--0--------------0-------------------------0---------------------------------------------|
G|--1--------------4-------------------------2---------------------------------------------|
D|--2--------------6-------------------------4---------------------------------------------|
A|--2--------------6-------------------------4---------------------------------------------|
E|--0--------------0-------------------------0---------------------------------------------|
    Fake deals     in the supermarket,         TVs selling what you can get,

e|--0--------------0------------------------0-----------------------------------|
B|--0--------------0------------------------0-----------------------------------|
G|--1--------------4------------------------2-----------------------------------|
D|--2--------------6------------------------4-----------------------------------|
A|--2--------------6------------------------4-----------------------------------|
E|--0--------------0------------------------0-----------------------------------|
    She laughs     nowhere as pretty as     this.

e|--0-------------0-----------------------------0-------------------------------|
B|--0-------------0-----------------------------0-------------------------------|
G|--1-------------4-----------------------------2-------------------------------|
D|--2-------------6-----------------------------4-------------------------------|
A|--2-------------6-----------------------------4-------------------------------|
E|--0-------------0-----------------------------0-------------------------------|
    Green cars    crawling in the slow lane,    Lost stars waiting for the dark train,

e|--0-----------0--------------------------0------------------------------------|
B|--0-----------0--------------------------0------------------------------------|
G|--1-----------4--------------------------2------------------------------------|
D|--2-----------6--------------------------4------------------------------------|
A|--2-----------6--------------------------4------------------------------------|
E|--0-----------0--------------------------0------------------------------------|
    She smiles, turns and blows the city a  kiss.


Lead Guitar [Verse] *Played at "Green Cars..."

  PM ---------------------------------------------------------------------------------------------------|
e|--------------------------------------------------------------------------------------------------------|
B|-5-5-5-5-5-0---5-5-5-5-5-7-9---5-5-5-0---5-5-5-5-5-7-9---5-5-5-0---5-5-7-9---5-5-5-5-5-0---5-5-5-5-5-0--| 
G|--------------------------------------------------------------------------------------------------------|   
D|--------------------------------------------------------------------------------------------------------|
A|--------------------------------------------------------------------------------------------------------|
E|--------------------------------------------------------------------------------------------------------|

[Chorus]

e|--0-------------------------0-------------------0----------------------------0--------------|
B|--5-------------------------0-------------------5----------------------------0--------------|
G|--6-------------------------1-------------------6----------------------------1--------------|
D|--6-------------------------2-------------------6----------------------------2--------------|
A|--0-------------------------2-------------------0----------------------------2--------------|
E|----------------------------0------------------------------------------------0--------------|
   Under the waves I feel her pull my body down,  Under the waves she takes me where I wanna drown

e|-0-------------------------0--------0------------------0--------------0----0-----|
B|-5-------------------------5--------2------------------0--------------0----0-----|
G|-6-------------------------4--------2------------------1--------------4----2-----|
D|-6-------------------------4--------2------------------2--------------6----4-----|
A|-0-------------------------0--------0------------------2--------------6----4-----|
E|---------------------------4--------2------------------0--------------0----0-----|
   Ah, gimme miles away she  calls to me  This girl is a beautiful sea.


[Verse 2]

e|--0----------------0-------------------------0---------------------------------------------|
B|--0----------------0-------------------------0---------------------------------------------|
G|--1----------------4-------------------------2---------------------------------------------|
D|--2----------------6-------------------------4---------------------------------------------|
A|--2----------------6-------------------------4---------------------------------------------|
E|--0----------------0-------------------------0---------------------------------------------|
    Freeze frame, graffiti at the bus stop     Star Wars, chewing gum and punk rock

e|--0--------------0-------------------------------0-----------------------------------|
B|--0--------------0-------------------------------0-----------------------------------|
G|--1--------------4-------------------------------2-----------------------------------|
D|--2--------------6-------------------------------4-----------------------------------|
A|--2--------------6-------------------------------4-----------------------------------|
E|--0--------------0-------------------------------0-----------------------------------|
    She says,     "What d'you say we give this a miss?"

e|--0------------0-------------------------------0-------------------------------|
B|--0------------0-------------------------------0-------------------------------|
G|--1------------4-------------------------------2-------------------------------|
D|--2------------6-------------------------------4-------------------------------|
A|--2------------6-------------------------------4-------------------------------|
E|--0------------0-------------------------------0-------------------------------|
    Let's go,    take you where the wind blows,  Sail ships far into tomorrow

e|--0-----------0--------------------------0------------------------------------|
B|--0-----------0--------------------------0------------------------------------|
G|--1-----------4--------------------------2------------------------------------|
D|--2-----------6--------------------------4------------------------------------|
A|--2-----------6--------------------------4------------------------------------|
E|--0-----------0--------------------------0------------------------------------|
    We can      turn and blow the  city a kiss.


[Instrumental]

e|--0-------------------------0-------------------0----------------------------0--------------|
B|--5-------------------------0-------------------5----------------------------0--------------|
G|--6-------------------------1-------------------6----------------------------1--------------|
D|--6-------------------------2-------------------6----------------------------2--------------|
A|--0-------------------------2-------------------0----------------------------2--------------|
E|----------------------------0------------------------------------------------0--------------|


[Chorus]

e|--0-------------------------0-------------------0----------------------------0--------------|
B|--5-------------------------0-------------------5----------------------------0--------------|
G|--6-------------------------1-------------------6----------------------------1--------------|
D|--6-------------------------2-------------------6----------------------------2--------------|
A|--0-------------------------2-------------------0----------------------------2--------------|
E|----------------------------0------------------------------------------------0--------------|
   Under the waves I feel her pull my body down,  Under the waves she takes me where I wanna drown

e|-0-------------------------0--------0---------0------------0----------0------------0---|
B|-5-------------------------5--------2---------5------------2----------5------------2---|
G|-6-------------------------4--------2---------4------------2----------4------------2---|   Stop
D|-6-------------------------4--------2---------4------------2----------4------------2---|  playing
A|-0-------------------------0--------0---------0------------0----------0------------0---|
E|---------------------------4--------2---------4------------2----------5------------2---|
   Ah, gimme miles away she  calls my name, She gets into my veins, And writes my poetry


[Outro]

e|----------------0-------------0------------0-----------------|
B|----------------0-------------0------------0-----------------|
G|----------------1-------------4------------2-----------------|  Repeat 4 times
D|----------------2-------------6------------4-----------------|
A|----------------2-------------6------------4-----------------|
E|----------------0-------------0------------0-----------------|
   This girl is a beautiful sea
Suggest correction
Creating personal tab
Creating personal tab
You can edit any tab online and save it as your Personal.

You can edit, replace or remove any tab part or add personal notes – all changes will be seen only by you.

Personal tabs can be accessed anytime from any device, even offline.
Learn more »
comments
print report bad tab
3 comments total.
0 reply
gabrielcalixto9 10 Feb 03, 2017 12:36 PM

Hey, awesome tab here!
Can you also transcribe the lead guitar parts?
Thx

guest
You may want to rate the tab now too:
select rating
Wanna post a correction for this tab? Suggest correction