Oops, an error
Loading. Please wait.

Spirited Away - Ano Natsu He One Summers Day intro tab

13,005 views 75 this week
2 commentsread comments
1 2 3 4 5
x 5
add to favorites
×
Save as Personal and add changes to this tab that will be seen only by you. Learn more ›
×
You can save this tab as Personal to edit and correct it or add notes. All changes will be seen only by you. Learn more »
launch autoscroll
font size
0
reset
how to read this tab
guitar tuner
edit
Autoscroll
slow
fast
+/-
esc
set tempo
stop
Author
Difficulty
Unregistered
I've searched for tabs for this song for a long time to the point of frustration 
so, I tabbed this out by ear. I hope you guys like it. ^,^ ~Ryo-sama~
                  
Ano Natsu He (One Summer's Day)
By: Joe Hisaishi
e|-----------------------------------|
B|--6-6-6--5-5----4-----2-----3------|
G|--5------4------3-----1-----2-2-2--|
D|--5------4------3-----1-----2------|
A|--5------4------3-----1-----2------|
E|-----------------------------------|

e|---------------5-----------------------3--------|
B|--5-5-5-5-5-3-5--5--3-3--3-3-3-3-3-1-3--3-1-0-1-|
G|--0----------------------0----------------------|
D|--0----------------------0----------------------|
A|--0----------------------0----------------------|
E|------------------------------------------------|

e|----------------------------------------3-1---|
B|-------------------------------------------4-3|
G|--2-4-5-5-5-5--2-4-5-5-4-5--2-4-5-5-5-5-------|
D|----------------------------------------------|
A|----------------------------------------------|
E|----------------------------------------------|

e|----1--3-3-3-3-3-1-0-----0-------1--3-3-3-3-3-1-0-----0--|
B|--3------------------3-3---1---1------------------3-3---1|
G|--0------------------------------------------------------|
D|--0------------------------------------------------------|
A|--0------------------------------------------------------|
E|---------------------------------------------------------|

e|------------------|
B|--1-3-5-----------|
G|------------------|
D|------------------|
A|-------------0-3--|
E|------------------|

END

            
            
Suggest correction
Creating personal tab
Creating personal tab
You can edit any tab online and save it as your Personal.

You can edit, replace or remove any tab part or add personal notes – all changes will be seen only by you.

Personal tabs can be accessed anytime from any device, even offline.
Learn more »
comments
print report bad tab
2 comments total.
0 reply
tbias 35 Aug 22, 2017 01:50 PM

I love this tab, but I feel like parts are missing. I really want to play the whole song so I'd love it if someone could figure out what isn't in here. Maybe I'm just a crazy person.

guest
Wanna post a correction for this tab? Suggest correction