Oops, an error
Loading. Please wait.

Spongebob Squarepants Theme Tab

version 2
version 2

Whole song

306,549 views 1,227 this week
21 commentsread comments
1 2 3 4 5
excellent!
x 48
add to favorites
launch autoscroll
font size
0
reset
how to read this tab
guitar tuner
Tab Pro tools
  • play this tab
  • loop segment
  • change instrument
  • show fretboard
  • metronome
×
Best way to learn
"Spongebob Squarepants Theme"
Autoscroll
slow
fast
+/-
esc
set tempo
stop
Contributor
Spongebob Squarepants End Theme
Tabbed by: Jeremy Chong

Tuning: Standard


[Rhythm part I]

e|-----------|-----------------------------------------|-----|----|----|---------|
B|-----------|-----------------------------------------|-----|----|----|---------|
G|-----------|-----------------------------------------|-----|----|----|---------|
D|---9~----9~|--9-9~---9-9~----9~----9-9~---9-9~---9-9~|---9~|-9~-|--9-|---9-9~--|
A|7~----7~---|7~-----7~-----7~-----7~-----7~-----7~----|7~---|----|-7--|-7~------|
E|-----------|-----------------------------------------|-----|----|----|---------|


[Lead part I]

e|-7-6-7-9-7-----7-6-7-9-7-----7-6-7-9-7-----7-6-7-9-7---|
B|-------------------------------------------------------|
G|-------------------------------------------------------|
D|-------------------------------------------------------|
A|-------------------------------------------------------|
E|-------------------------------------------------------|


[Rhythm part II]

E|-----|-----------------------|---------------------------|----------------|
e|-----|-----------------------|---------------------------|----------------|
B|-----|-----------------------|---------------------------|----------------|
G|-----|----8~-----8~-----8~---|---------------------------|----------------|
D|---9-|9-9~---9-9~---9-9~---9~|--9-9~---9-9~---9-9~---9-9-|----------------|
A|7~---|-----------------------|7~-----7~-----7~-----7~----|----------------|
E|-----|-----------------------|---------------------------|----------------|


[Lead part II]

e|--7-6-7-9-7---------12-12--14-16-14-16-14|----|
B|----------------------------------------------|
G|----------------------------------------------|
D|----------------------------------------------|
A|----------------------------------------------|
E|----------------------------------------------|


[Rhythm part III]

e|---------------------|
B|---------------------|
G|---------------------|
D|--9-9~---------------|
A|7~-------------------|
E|---------------------|


[Lead part III]

e|--12-12--14--1-51-515-15---14-12|
B|--------------------------------|
G|--------------------------------|
D|--------------------------------|
A|--------------------------------|
E|--------------------------------|


[Rhythm part IV]

e|-----------------------------------------------|
B|-----------------------------------------------|
G|----------8~-----------------------------------|
D|---9-9~-9~------9~-----------------------------|
A|-7~-----------7~-----7~------------------------|
E|-----------------------------------------------|


[Lead part IV]

e|-7-6-7-9-7---7-6-7-9-5---11-11-----------------|
B|-----------------------------------------------|
G|-----------------------------------------------|
D|-----------------------------------------------|
A|-----------------------------------------------|
E|-----------------------------------------------|


***************
|~    Vibrato
***************
comments
print report bad tab
21 comments total. Showing first comments.
-2 reply
jet-lagged wrote on December 6 2004, 12:00 am

is this the one sang by squeeky voiced avril?

0 reply
fenderdude098 wrote on January 2 2005, 12:00 am

yep

0 reply
fenderdude098 wrote on January 2 2005, 12:00 am

yep

I want to post or [tab]
guest
You may want to rate the tab now too:
select rating
Please do not post tabs as comments. Select "correction" instead!