Oops, an error
Loading. Please wait.

Star Wars - Darth Vader Theme Bass Tab

21,081 views 9 this week
7 commentsread comments
1 2 3 4 5
x 24
add to favorites
launch autoscroll
font size
0
reset
guitar tuner
Autoscroll
slow
fast
+/-
esc
set tempo
stop
Help us to improve Ultimate-Guitar.com Take our survey!
×
[Main Riff]

G|-----------------------------------------------------|
D|---------------------------------5--5--5--6----------|
A|----3--3--3----5-3-------5-3---------------6---------|
E|------------4--------4----------------------7--------|

G|-----------------------------------------------------|
D|---------------------------------5--5--5--6----------|
A|----3--3--3----5-3-------5-3---------------6---------|
E|------------4--------4----------------------7--------|

Repeat as much as you like.
Suggest correction
comments
print report bad tab
7 comments total. Showing first comments.
-1 reply
James7 30 Mar 15, 2002 12:00 AM

some of the sevens should be eights

-1 reply
ingersoll 0 May 12, 2002 12:00 AM

yes he is right

-1 reply
bassbuddy 10 May 31, 2002 12:00 AM

G:
D: 777 8
A:555 8 5 8 5 8 8 5
E: 6 6 10 6

guest
You may want to rate the tab now too:
select rating
Wanna post a correction for this tab? Suggest correction