Oops, an error
Loading. Please wait.

Star Wars - Darth Vader Theme Tab

version 2
version 2

Intro

Whole song

8,442 views 9 this week
2 commentsread comments
1 2 3 4 5
x 9
add to favorites
launch autoscroll
font size
0
reset
how to read this tab
guitar tuner
×
Best way to learn
"Star Wars - Darth Vader Theme"
Autoscroll
slow
fast
+/-
esc
set tempo
stop
this tab was done by me, Craig Fox email me at
thebebop14752@bolt.com for more info


e-----------------------------------------------------------------|
B-----------------------------------------------------------------|
G-----------------------------------------------------------------|
D-------------------------------6--6--6--7--6---------------------|
A--4-4-4---7--4---7--4---7--4-----------------7----7--4----7---4--|
E--------5------5------5-------------------------5-------5--------|
Suggest correction
comments
print report bad tab
2 comments total.
0 reply
Pyro_Pope 10 Jan 12, 2003 07:00 PM

D-------------------------------6--6--6--7------------------------|
A--4-4-4---7--4---7--4---7--4---------------7------7--4----7---4--|
E--------5------5------5----------------------8--5-------5--------|
Please view and post in courier

0 reply
Kytetiger 52 Nov 16, 2006 09:51 PM

So short, their is nothing great...

guest
You may want to rate the tab now too:
select rating
Wanna post a correction for this tab? Suggest correction