Oops, an error
Loading. Please wait.

Star Wars - Imperial March Theme Bass Tab

version 2
version 2

Whole song

Interactive

4,664 views 9 this week
no commentswrite comment
1 2 3 4 5
x 4
add to favorites
launch autoscroll
font size
0
reset
guitar tuner
Autoscroll
slow
fast
+/-
esc
set tempo
stop
Help us to improve Ultimate-Guitar.com Take our survey!
×
Author
============================================================================
                             IMPERIAL MARCH
============================================================================

Pretty simple song, standard tuning. 


G :|-7-7-7-----9-7------9-7-|
D :|--------8--------8------|
A :|-5-5-5-----7-5------7-5-|
E :|--------6--------6------|

G :|----------8-7-----9-7-----9-7--|
D :|-5-5-5--7-------8-------8------|
A :|----------6-5-----7-5-----7-5--|
E :|-3-3-3--5-------6-------6------|

G :|---------------------------------------------|
D :|-10--5--10-9-888-5-8-7-666-5-6---------------|
A :|----------------------------------7-5----7-5-|
E :|-8---3--8--8-666-3-6-5-444-3-4--6------6-----|

============================================================================
Suggest correction
comments
print report bad tab
guest
You may want to rate the tab now too:
select rating
Wanna post a correction for this tab? Suggest correction