Oops, an error
Loading. Please wait.

Star Wars Theme Tab

version 2
version 2

Whole song

Interactive

38,555 views 27 this week
5 commentsread comments
1 2 3 4 5
x 42
add to favorites
launch autoscroll
font size
0
reset
how to read this tab
guitar tuner
×
Best way to learn
"Star Wars Theme"
Autoscroll
slow
fast
+/-
esc
set tempo
stop
This is the star wars theme song. I hope you like it.

e)-------------------------------------------------------------|
B)--------------3------------3---------------------------------|
G)-----2-----------2------------2---------0--------------------|
D)--0-----5-4-2-------5-4-2---------5--4-----2-----------------|
A)-------------------------------------------------------------|
E)-------------------------------------------------------------|
Suggest correction
comments
print report bad tab
5 comments total. Showing first comments.
+4 reply
Bilzzard_of_Ozz 55 Jun 16, 2004 08:00 PM

To me it sounds more like:
e|-------------------------------------------|
B|------------3-------------3----------------|
G|--2------------2-------------2-------0-----|
D|0----5-4-2--------5-4-2---------5-4----2---|
A|-------------------------------------------|
E|-------------------------------------------|

But that's just me ;)
Anyway a fair try worth 4 stars!

0 reply
Browan 10 Nov 04, 2006 03:10 PM

yah, that last part is right now

+1 reply
guitaristguy043 36 Sep 29, 2007 11:36 AM

thats just the intro of the song

guest
You may want to rate the tab now too:
select rating
Wanna post a correction for this tab? Suggest correction