Oops, an error
Loading. Please wait.

Star Wars Theme Tab

version 2
version 2

Intro

Whole song

Interactive

39,586 views 39 this week
5 commentsread comments
1 2 3 4 5
x 21
add to favorites
launch autoscroll
font size
0
reset
how to read this tab
guitar tuner
×
Best way to learn
"Star Wars Theme"
Autoscroll
slow
fast
+/-
esc
set tempo
stop
Author
e|-------------8-----------8-------------------------------------------|
B|---8--6-5------8--6-5------8--6-5-6----------------------------------|
G|-5--------7------------7------------7--------------------------------|
D|---------------------------------------------------------------------|
A|---------------------------------------------------------------------|
E|---------------------------------------------------------------------|


Your tuned to standard and those are the proper notes and the easiest
fingering to it ( trust me i know its right, i took it right off of the piano music )
Suggest correction
comments
print report bad tab
5 comments total. Showing first comments.
0 reply
SweetNess_666 10 May 21, 2007 04:46 AM

nice tab very easy love it

0 reply
tqytommo84 10 Feb 13, 2009 08:07 AM

sounds great with a load of distortion

0 reply
sg97 10 Jun 01, 2009 11:19 AM

tab the imperial march(here it is)

A--0-0-0---3-0---3-0
E--------1-----1-----
if u want du rest,message me

guest
You may want to rate the tab now too:
select rating
Wanna post a correction for this tab? Suggest correction