Oops, an error
Loading. Please wait.

Star Wars Theme Tab

version 2
version 2

Whole song

Interactive

556,129 views 1,902 this week
60 commentsread comments
1 2 3 4 5
x 451
add to favorites
launch autoscroll
font size
0
reset
how to read this tab
guitar tuner
×
Best way to learn
"Star Wars Theme"
Autoscroll
slow
fast
+/-
esc
set tempo
stop
e|-----------------3---------3------------|
B|---------3-1-0-----3-1-0-----3-1-0-1----|
G|-------0-------2---------2-----------2--| x2
D|--0-0-0----------------------------------|
A|----------------------------------------|
E|----------------------------------------|

e|--------------------------------------------------|
B|---------1-0--------------------------1-0-----3---|
G|-------------2-0-0-2-4-2------------------2-0---2-|
D|-0-0-2-2-----------------2-4--0-0-2-2-------------|
A|--------------------------------------------------|
E|--------------------------------------------------|

e|----------------------------------3-1----------------|
B|------------------------------3-3-----4-3-1-0-----3--|
G|---------1-0----------------------------------2-0----|
D|-------------2-0-0-2-4-2-----------------------------|
A|-0-0-2-2-----------------2-4-------------------------|
E|-----------------------------------------------------|

e|-------------------|--------------------------|-------------------|
B|-------------------|--------------------------|-------------------|
G|-------------------|--------------------------|-2-----3-2-1-0---0-|
D|-------------------|-2-2-2-3-0----------------|---0-0---------4---|
A|-0-0-0---3-0---3-0-|-----------3---3-0---3-0--|-------------------|
E|-------1-----1-----|-------------1-----1------|-------------------|

e|---------------|------------------|
B|---------------|------------------|
G|---------------|------------------|
D|-0-5-4-3-2-1-2-|------------------|
A|---------------|---0---3-0---3-0--|
E|---------------|-1---1-----1------|

Suggest correction
comments
print report bad tab
60 comments total. Showing first comments. show 1 bad comment
+10 reply
JJ186282 0 Mar 01, 2002 12:00 AM

You got it right on the nose, Bud. Good job!

-1 reply
thedroog 0 Nov 18, 2002 12:00 AM

that last tab is in the wrong key. it starts on a c. and if you start it on the g sring it's alot easier than that stretch from like fret 3 to 10. try it. p.s. I used rebel alliance theme to match key (same song but more triumphant--- end of episode IV)

guest
You may want to rate the tab now too:
select rating
Wanna post a correction for this tab? Suggest correction