Oops, an error
Loading. Please wait.

Sucker For Pain Ost Suicide Squad Tab

187 views 12 this week
no commentswrite comment
1 2 3 4 5
3 more votes to show rating
add to favorites
launch autoscroll
font size
0
reset
how to read this tab
guitar tuner
Autoscroll
slow
fast
+/-
esc
set tempo
stop
Help us to improve Ultimate-Guitar.com Take our survey!
×
Author
Rest the palm of yore hand on the guitar strings to get a muffled sound for this song.


[Intro]

e|----------------------------------------|
B|----------------------------------------|
G|-------------------1-------1------------|
D|--------------2-----------------2-------|
A|----0----3---------------------------3--|
E|----------------------------------------|(x4)

e|----------------------------------------|
B|----------------------------------------|
G|-------------------1--------------------|End
D|--------------2-------------------------|
A|----0----3------------------------------|
E|----------------------------------------|
Suggest correction
Give kudos to tab author, rate the tab!
1 2 3 4 5
comments
print report bad tab
guest
You may want to rate the tab now too:
select rating
Wanna post a correction for this tab? Suggest correction