Oops, an error
Loading. Please wait.

Superman Theme tab

version 2
version 2

Whole song

25,635 views 24 this week
1 commentread comment
1 2 3 4 5
x 19
add to favorites
×
Save as Personal and add changes to this tab that will be seen only by you. Learn more ›
×
You can save this tab as Personal to edit and correct it or add notes. All changes will be seen only by you. Learn more »
launch autoscroll
font size
0
reset
how to read this tab
guitar tuner
edit
Autoscroll
slow
fast
+/-
esc
set tempo
stop
Author
Difficulty
The London Symphony Orchestra/John Williams
Theme from Superman (Main Title)
Superman:The Movie
1978

  00:01
E:--------------------------------0--3-3----------------------------------4-3-3-----|
B:--------------------------------1--3-3--------------------1-1-1--3-3-3--6-5-5-----|
G:-------------5------------------0--0-0--------------5-----1-1-1--3-3-3--6-5-5-----|
D:-5--5---5-5----5----5--5---5-5--2--0----5--5---5-5----5---------------------------|
A:------3----------3-------3-------------------3----------3-------------------------|
E:----------------------------------------------------------------------------------|


  00:25
E:---------------------------------------------------------4----------------------------------...
B:-------------------------------------------------------6------------------------------------...
G:-----------------------------------------------------6-66-6-66666-6-66-6-66666-5-55-5-55555-...
D:-5-55-5-55555-5-55-5-55555---------------------------6-66-6-66666-6-66-6-66666-5-55-5-55555-...
A:-3-33-3-33333-3-33-3-33333-3-33-3-33333-5-55-5-55555-4-44-4-44444-4-44-4-44444-3-33-3-33333-...
E:---------------------------1-11-1-11111-3-33-3-33333----------------------------------------...

  ...--------------|
  ...--------------|
  ...-5-55-5-55555-|
  ...-5-55-5-55555-|
  ...-3-33-3-33333-|
  ...--------------| 
        

  00:41 
E:-----3---5-3---3-----------3--3-5-3---5-3------7---------7--------7-5-7-8----------|
B:-------------6----------------------6------------8---------8-----------------------|
G:-5-5---5---------------5-5-----------------555-------555------555---------555555---|
D:------------------555--------------------------------------------------------------|
A:-----------------------------------------------------------------------------------|
E:-----------------------------------------------------------------------------------|


  00:57
E:---------3-3-5-3---3---------3-3-5-3---5-3------7--------7--------7-5-7-8----------|
B:-----------------6-------------------6------------8--------8-----------------------|
G:-----5-5-----------------5-5----------------555------555------555---------555555---|
D:-555-----------------555-----------------------------------------------------------|
A:-----------------------------------------------------------------------------------|
E:-----------------------------------------------------------------------------------|



  01:13
E:-----------------------------------------------------------------|
B:-----------------------------------------------------------------|
G:-----------------------------------------------------------------|
D:------------------7-5-5-------------10-7-5-7-5---5---------------|
A:-3-3-5--5-5-8-7-5--------3-3-5--5-5------------7-----------------|
E:-----------------------------------------------------------------|


  01:22
E:-----------------------------------------------------------------|
B:-----------------------------------------------------------------|
G:-------------------------------------------7----------10-9-9-----|
D:------------------9-7-9-10-----7h9-10-9-10------5h7s9------------|
A:-3-3-5--5-5-8-7-5-----------10---------------5h7-----------------|
E:-----------------------------------------------------------------|

        

  01:30
E:-----------------------------------------------------------------|
B:-----------------------------------------------------------------|
G:-----------------------------------------------------------------|
D:------------------7-5-5-------------10-7-5-7-5---5---------------|
A:-3-3-5--5-5-8-7-5--------3-3-5--5-5------------7-----------------|
E:-----------------------------------------------------------------|


  01:38
E:---------------------------------------------------------------------------|
B:-------------------------------------------------6-55-----------------6-55-|
G:-----------------------------------5-55--55-7-55---------5-55-55-7-55------|
D:------------------9-7-9-10--55555--------------------555-------------------|
A:-333-5--5-5-8-7-5----------------------------------------------------------|
E:---------------------------------------------------------------------------|


  01:51
E:------------------------------------------------------------3--------------|
B:--------------------5----6-----666----666----666----655---------5-----5----|
G:------5-55--55-7-55---77---555-----55-----55-----55-----755--------5----5--|
D:--555----------------------------------------------------------------------|
A:---------------------------------------------------------------------------|
E:---------------------------------------------------------------------------|


  02:04
E:-------------------------------3--3-3-----------------------------------4-3---------------|
B:-------------------------------5--3-3---------------------4-4-4--6-6-6--6-5---------------|
G:------------5------------------5--4-4--------------5------5-5-5--7-7-7--6-5-5-55-5-55555--|
D:-5--5---5-5---5-----5-5---5-5--5--5-5---5--5---5-5---5----6-6-6--8-8-8------5-55-5-55555--|
A:------3---------3-------3---------5----------3---------3--6-6-6--8-8-8------3-33-3-33333--|
E:------------------------------------------------------------------------------------------|

        

  02:20
E:-------5-3------------------------------------5-3--4-3-4-3------------------|
B:------------6-5-6--5-3-------------------------------------6----------------|
G:---2-5------------------------------------2-5-----------------1-3---5-3-5---|
D:-3---------------------3-5-7-5-7----333-3-----------------------------------|
A:----------------------------------------------------------------------------|
E:----------------------------------------------------------------------------|


  02:41
E:-----6-----8p6---5--(-5p3--3---3--8p6--6-)-----6----8p6---5--(15p13----13------------------)-|
B:-666----66-----6----(----5---5-------8---)-666---66-----6----(------15----15-13-15-13------)-|
G:-------------------------------------------------------------(------------------------15-12)-|
D:---------------------------------------------------------------------------------------------|
A:---------------------------------------------------------------------------------------------|
E:---------------------------------------------------------------------------------------------|


  02:50
E:-----8-----8p6---6------------------------------------------------8---------------------------|
B:-666----66-----6-------------12p10-10-12p10-10------10p8-8-10p8-8-----------------------------|
G:-----------------------10-10-------------------10-10----------------3-33-3-33333-3-33-3-33333-|
D:--------------------------------------------------------------------3-33-3-33333-3-33-3-33333-|
A:--------------------------------------------------------------------1-11-1-11111-1-11-1-11111-|
E:----------------------------------------------------------------------------------------------|


  03:02
E:---------1---3-1---1----------1---3-1---3-1------5--------5-------5-3-5-6-----5-6--|
B:-----------------4--------------------4------------6-------6-----------------------|
G:-----3-3---3--------------3-3---3------------333------333-----333---------333------|
D:-333------------------333----------------------------------------------------------|
A:-----------------------------------------------------------------------------------|
E:-----------------------------------------------------------------------------------|

        

  03:19
E:----------------------------------------------------------------------------------8---8-8---|
B:----------------------------------------------------------------------------------10--8-8---|
G:-10-1010-10-1010101010--10-1010-10-1010101010---------------10--------------------10--9-9---|
D:-10-1010-10-1010101010--10-1010-10-1010101010--10-10---10-10--10---10-10---10-10--10--1010--|
A:-8--8-8--8--8-8-8-8-8---8--8-8--8--8-8-8-8-8---------8-----------8-------8------------------|
E:--------------------------------------------------------------------------------------------|


  03:31
E:--------------------------------9-9-9--11-11-11--9--8-8---------------------------------------|
B:--------------------------------9-9-9--11-11-11--11-1010--------------------------------------|
G:---------------10---------------101010-12-12-12--11-1010---------------------------12---------|
D:-10-10---10-10----10------------111111-13-13-13--11-1010------------12-12----12-12-----12-----|
A:-------8-------------8----------------------------------------101010-------10--------------10-|
E:----------------------------------------------------------------------------------------------|


  03:43
E:----------------10-10-10----------------------------11-11-11-13-13-13--11-10-10--10-10--10-10-10|
B:----------------12-10-10----------------------------11-11-11-13-13-13--13-12-12--12-12--12-12-12|
G:----------------12-11-11----------------------12-12-12-12-12-14-14-14--13-12-12--12-12--12-12-12|
D:-12-12----12-12-12-12-12-------12-12----12-12-------13-13-13-15-15-15--13-12-12--12-12--12-12-12|
A:-------10---------------101010-------10------------------------------------------10-10--10-10-10|
E:------------------------------------------------------------------------------------------------|

 
  03:54
E:-10-10--10-10-10--10-10--10-10-10--10-10--10-10-10-----------------------------10--10-10--------|
B:-12-12--12-12-12--12-12--12-12-12--12-12--12-12-12---12-12--12-15-20-----------12--10-10--------|
G:-12-12--12-12-12--12-12--12-12-12--12-12--12-12-12---12-12--12-15-20--12-13-15-12--11-11--------|
D:-12-12--12-12-12--12-12--12-12-12--12-12--12-12-12---12-12--12-15-20-----------12--12-12--------|
A:-10-10--10-10-10--10-10--10-10-10--10-10--10-10-10---10-10--10-13-18----------------------------|
E:------------------------------------------------------------------------------------------------|


  04:03
E:----------------------------------------7-9--12-10-10-----------------|
B:--------------------------10--12-10-10--------------------------------|
G:-----------------9-77--12---------------------------------------------|
D:-------------7-9------------------------------------------------------|
A:-------7-55-----------------------------------------------------------|
E:-3-5-7----------------------------------------------------------------|


  04:07
E:-12-14-151515-1515-151515-1515-151515-1515-1515151515...---------------------------------10----|
B:-----------------------------------------------------------------------------------------12----|
G:-------121212-1212-121212-1212-121212-1212-1212121212...-12------------------------------12----|
D:-------121212-1212-121212-1212-121212-1212-1212121212...-12--555-5555-555-5555-5555------12----|
A:-------101010-1010-101010-1010-101010-1010-1010101010...-10--555-5555-555-5555-5555------10----|
E:-------------------------------------------------------------333-3333-333-3333-3333------------|



************************************

| h  Hammer-on
| p  Pull-off

************************************
Suggest correction
Creating personal tab
Creating personal tab
You can edit any tab online and save it as your Personal.

You can edit, replace or remove any tab part or add personal notes – all changes will be seen only by you.

Personal tabs can be accessed anytime from any device, even offline.
Learn more »
comments
print report bad tab
1 comment total.
+1 reply
tabs4u:) 41 Aug 25, 2013 12:04 AM

fantastic!!!! this is great, so heplful

guest
You may want to rate the tab now too:
select rating
Wanna post a correction for this tab? Suggest correction