Oops, an error
Loading. Please wait.

Swiss Army Man - A Better Way Tab

version 1
version 1

Acoustic

  • This sounds a bit more like the song, since it is ... Show more

Whole song

  • Listen to the song to master the picking timing. T... Show more
1,969 views 108 this week
1 commentread comment
1 2 3 4 5
x 4
add to favorites
launch autoscroll
font size
0
reset
how to read this tab
guitar tuner
Autoscroll
slow
fast
+/-
esc
set tempo
stop
Help us to improve Ultimate-Guitar.com Take our survey!
×
Author
Difficulty
Capo
novice
1st fret
About this tab version
This sounds a bit more like the song, since it is played with tabs rather than chords. Please feel free to change it if you feel like it's not quite right. Was this info helpful? Yes No
[Main riff]

e|---------------------------------------------------------------------------|
B|---------------------------------------------------------------------------|
G|---------------------------------------------------------------------------|
D|-----------------------------------4-------4-------4-------4-2-0-----------|
A|---4-------4-------4-------4-2-0-------------------------------------------|
E|-------5-------5-------5---------------5-------5-------5-------------------|

e|---------------------------------------------------------------------------|
B|---------------------------------------------------------------------------|
G|---------------------------------------------------------------------------|
D|---------------------------------------------------------------------------|
A|--4-------4-------4-------4-2-0---5-------5-------5-------5-4-2------------|
E|------5-------5-------5---------------5-------5-------5--------------------|
Suggest correction
comments
print report bad tab
1 comment total.
0 reply
OlivaSullen 10 Dec 13, 2016 08:30 AM

e|-----------------------------------------------------------------------
B|-----------------------------------------------------------------------
G|-----------------------------------------------------------------------
D|-----------------------------------4------4------4-------4-2-0--------
A|---4-------4------4------4-2-0--------0------0------0------------------
E|-------0-------0------0------------5-------------5---------------------

e|-----------------------------------------------------------------------
B|-----------------------------------------------------------------------
G|-----------------------------------------------------------------------
D|-------------------------------------0--------0-------0-------0-------
A|--4-------4-------4-------4-2-0----------0-------0--------0------0----
E|-------5------0-------5--------------2-----------------2---------------

e|-----------------------------------------------------------------------
B|-----------------------------------------------------------------------
G|-----------------------------------------------------------------------
D|---2-------2---------0-------0-----------------------------------------
A|-------2------2-----------0------0-----4-------4------4------4---------
E|---0------------------2--------------------0------0------0------0----

guest
You may want to rate the tab now too:
select rating
Wanna post a correction for this tab? Suggest correction