Oops, an error
Loading. Please wait.

Taps Theme Tab

4,513 views 1 this week
4 commentsread comments
1 2 3 4 5
x 3
add to favorites
×
Save as Personal and add changes to this tab that will be seen only by you. Learn more ›
×
You can save this tab as Personal to edit and correct it or add notes. All changes will be seen only by you. Learn more »
save as personal
new!
launch autoscroll
font size
0
reset
how to read this tab
guitar tuner
Autoscroll
slow
fast
+/-
esc
set tempo
stop
Themes - T.A.P.S
Rudy (creed989@yahoo.com)

Tabbed:Rudy
Website:
http://www.geocities.com/fund_the_break

~=ring out

E-0-0-5~~--0-5-9~~-0-5-9-0-5-9~~--5-9-12~~~-12-9-5~~-0-0-5-
B----------------------------------------------------------
G----------------------------------------------------------
D----------------------------------------------------------
A----------------------------------------------------------
E----------------------------------------------------------

-Rudy
http://www.geocities.com/creed989
Suggest correction
Give kudos to tab author, rate the tab!
1 2 3 4 5
comments
print report bad tab
4 comments total. Showing first comments.
0 reply
Anarion614 81 Nov 04, 2006 07:13 PM

cool, my friend is playing this tomorrow on her trumpet for veterans day..maybe if she drops out i can fill in with guitar...useful skill

0 reply
sunoskae 10 Jun 15, 2007 07:22 PM

Thanks! This is pretty useful :)

+1 reply
the_musicman 72 Mar 14, 2009 04:37 PM

well...it is very nice...but your notes, overall, are off.

the song is based on arpeggigos on the I chord and it's inversion.

so, in the key of C, it's the C/G arpeggigo and C arpeggigo.

like so:

e---------------0--|
b-------1-----1----|
g--0-0------0------|

e------0-----0-----0--|
b----1-----1-----1----|
g--0-----0-----0------|

e-----0--3---0------|
b--1-----------1----|
g----------------0--|

e-------------|
b-------1~~---|
g--0--0-------|
d-------------|
a----------3~~|
e-------------|

guest
Wanna post a correction for this tab? Suggest correction