Oops, an error
Loading. Please wait.

Terminator Theme tab

version 6
version 6
25,020 views 21 this week
2 commentsread comments
1 2 3 4 5
1 last vote to show rating
add to favorites
×
Save as Personal and add changes to this tab that will be seen only by you. Learn more ›
×
You can save this tab as Personal to edit and correct it or add notes. All changes will be seen only by you. Learn more »
launch autoscroll
font size
0
reset
how to read this tab
guitar tuner
edit
Autoscroll
slow
fast
+/-
esc
set tempo
stop
Author
-----------------------------------------------------------------------------
                TERMINATOR (Love Scene) THEME - Misc Soundtrack
-----------------------------------------------------------------------------

Tabbed by: Anne Drury
Email: zerofret_ad@hotmail.com
Date: October 3, 2005

Music by: Brad Fiedel
CD: "The Terminator: The Definitive Edition" Soundtrack  
     (1995, Edel America Records)

Notes:

-this transcription is based on the acoustic piano version of the      
 Terminator theme, which is played in the love scene in 
 "The Terminator" (T1) 
-the transcription is for two guitars, one playing the right hand piano part
 (melody) and the other playing the left hand piano part (accompaniment)
-Tuning: Standard
-key of D minor
-bar lines indicate measures of 4/4 time (timing is included)
-in the uptempo part of the song, Fiedel plays mostly single notes for the
 accompaniment -- I put in some triads to fill out the sound a bit more
 for guitar
-in measures 3-5, melody and accompaniment are combined

 

 E |-----------------|-----------------|
 B |-3-------3-------|-3-------3-------|
 G |-----------------|-----------------|
 D |-----------------|-----------------|
 A |-----------------|-----------------|
 E |-----------------|-----------------|
     1 + 2 + 3 + 4 + | 1 + 2 + 3 + 4 + 



    Dm                Bb                Dm                F        C   

 E |---0-1-----0-----|-----------------|---0-1-----0-----|-5-------3-------|
 B |-3-------------1-|-------------1---|-3-------------1-|-----------------|
 G |-2---------------|-3-------3-------|-2-------2-------|-----------------|
 D |-----------------|-3---------------|-----------------|-----------------|
 A |-----------------|-----------------|-----------------|-----------------|
 E |-----------------|-----------------|-----------------|-----------------|
   |                                                                       |
   | 1 + 2 + 3 + 4 + | 1 + 2 + 3 + 4 + | 1 + 2 + 3 + 4 + | 1 + 2 + 3 + 4 + |
   |                                                                       |
 E |-----------------|-----------------|-----------------|-------3---------|
 B |-----------------|-----------------|-----------------|---------3-------|
 G |-----------------|-----------------|-----------------|-----5-------5---|
 D |-----------------|-----------------|-----------------|---5-------------|
 A |-----------------|-----------------|-----------------|-3---------------|
 E |-----------------|-----------------|-----------------|-----------------|



    Bb                C                 Bb                Bb       C

 E |---0-1-----0-----|-----------------|-----------------|-----------------|
 B |-3-------------1-|-----------------|-----------------|-----------------|
 G |-----------------|-0---------------|-----------------|-----------------|
 D |-----------------|-----------------|-3-------------0-|-3-------2-------|
 A |-----------------|-----------------|-----------------|-----------------|
 E |-----------------|-----------------|-----------------|-----------------|
   |                                                                       | 
   | 1 + 2 + 3 + 4 + | 1 + 2 + 3 + 4 + | 1 + 2 + 3 + 4 + | 1 + 2 + 3 + 4 + |
   |                                                                       |
 E |-----------------|-------------0---|-----------------|---------0-------|
 B |---------1-------|---------2-------|---------1-------|-----1---1---1---|
 G |-----3-----0---0-|-----0-----0---0-|-----3-----0-3-0-|-------0---0-----|
 D |---0---0---------|---2---2---------|---0---0---------|---2-------------|
 A |-1-----------1---|-3---------------|-1---------------|-3-------------3-|
 E |-----------------|-----------------|-----------------|-----------------|


(double the tempo for second half)

    Dm                                   Bb

 E |-------------------|----------------|-----------------|----------------|
 B |-15-17-18-18~------|---------17-----|-----------------|----------------|
 G |-------------------|-------------17-|-12----------14--|----------------|
 D |-------------------|----------------|-----------------|-15~------------|
 A |-------------------|----------------|-----------------|----------------|
 E |-------------------|----------------|-----------------|----------------|
   |                                                                       |
   | 1  +  2  + 3 + 4 +| 1 + 2 + 3 + 4 +| 1 + 2 + 3 + 4 + | 1 + 2 + 3 + 4 +|
   |                                                                       |
 E |-------------------|----------------|-----------------|----------------|
 B |-3--------3-----3--|---3-----3---3--|-3-----3---------|-3-----3--------|
 G |-2--------2-----2--|---2-----2---2--|-3-----3---------|-3-----3--------|
 D |-0--------0-----0--|---0-----0---0--|-3-----3---------|-3-----3--------|
 A |-------------------|-------0--------|-------------1---|-------------1-3|
 E |-------------------|----------------|-----------1---1-|----------------|



    Dm                                   F                 C

 E |-------------------|----------------|-17~-------------|-15~------------|
 B |-15-17-18-18~------|---------17-----|-----------------|-17~------------|
 G |-------------------|-------------17-|-----------------|----------------|
 D |-------------------|----------------|-----------------|----------------|
 A |-------------------|----------------|-----------------|----------------|
 E |-------------------|----------------|-----------------|----------------|
   |                                                                       |
   | 1  +  2  + 3 + 4 +| 1 + 2 + 3 + 4 +| 1 + 2 + 3 + 4 + | 1 + 2 + 3 + 4 +|
   |                                                                       |
 E |-------------------|----------------|-----------------|----------------|
 B |-3--------3-----3--|---------3---3--|-----------------|----------------|
 G |-2--------2-----2--|---------2---2--|-2---------------|-0--------------|
 D |-0--------0-----0--|---0---0-0---0--|-3---------------|-2--------------|
 A |-------------------|----------------|-3-----3---3-----|-3-----3-----3-3|
 E |-------------------|----------------|---------------3-|----------------|



    Bb                                   C

 E |-------------------|----------------|-----------------|----------------|
 B |-15---17-18~-------|---------17-----|-----------------|----------------|
 G |-------------------|-------------17-|-12~-------------|----------------|
 D |-------------------|----------------|-----------------|----------------|
 A |-------------------|----------------|-----------------|----------------|
 E |-------------------|----------------|-----------------|----------------|
   |                                                                       |
   | 1  +  2  + 3 + 4 +| 1 + 2 + 3 + 4 +| 1 + 2 + 3 + 4 + | 1 + 2 + 3 + 4 +|
   |                                                                       |
 E |-------------------|----------------|-----------------|----------------|
 B |-3-----------------|-------3---3---3|-----------------|----------------|
 G |-3-----------------|-------3---3---3|-0---------------|----------------|
 D |-3-----------------|-------3---3---3|-2---------------|----------------|
 A |-1--------------1--|---1------------|-3-----3-------3-|-------3-----3--|
 E |-------------------|----------------|-----------3-----|---3-------3---3|



    Bb                                   C

 E |-------------------|----------------|-----------------|----------------|
 B |-------------------|----------------|-----------------|----------------|
 G |-10~---------------|----------------|-10~-------------|-9~-------------|
 D |-------------------|------------12--|-----------------|----------------|
 A |-------------------|----------------|-----------------|----------------|
 E |-------------------|----------------|-----------------|----------------|
   |                                                                       |
   | 1  +  2  + 3 + 4 +| 1 + 2 + 3 + 4 +| 1 + 2 + 3 + 4 + | 1 + 2 + 3 + 4 +|
   |                                                                       |
 E |-------------------|----------------|-----------------|----------------|
 B |-3----------------3|---3---3-----3--|-----------------|----------------|
 G |-3----------------3|---3---3-----3--|-0---------------|-0--------------|
 D |-3----------------3|---3---3-----3--|-2---------------|-2--------------|
 A |-1--------1--------|-----------1---1|-3-----3---------|-3-----3--------|
 E |-------------------|----------------|-----------3---3-|-----------3---3|



    Dm

 E |-------------------|
 B |-------------------|
 G |-7~----------------|
 D |-------------------|
 A |-------------------|
 E |-------------------|
   |                   |
   |                   |
   |                   |
 E |-1-----------------|
 B |-3-----------------|
 G |-2-----------------|
 D |-0-----------------|
 A |-------------------|
 E |-------------------|


----------------------------------------------------------------------------

(This file is the transcriber's own work and represents 
their interpretation of the song.)

            
            
Suggest correction
Creating personal tab
Creating personal tab
You can edit any tab online and save it as your Personal.

You can edit, replace or remove any tab part or add personal notes – all changes will be seen only by you.

Personal tabs can be accessed anytime from any device, even offline.
Learn more »
Give kudos to tab author, rate the tab!
1 2 3 4 5
comments
print report bad tab
2 comments total.
0 reply
AngusYoung II 51 Oct 12, 2005 06:15 PM

sounds more like star wars then terminator

0 reply
zerofret 980 Oct 28, 2005 10:02 AM

Those who play the tab correctly (working with the version of the theme stated in the tab notes) will definitely get The Terminator theme as a result. Those who play the tab incorrectly...will get Star Wars, apparently. ;-)

guest
You may want to rate the tab now too:
select rating
Wanna post a correction for this tab? Suggest correction